Oops, an error
Loading. Please wait.

Fix tab

1,735 views 3 this week
80 commentsread comments
1 2 3 4 5
x 5
add to favorites
×
Save as Personal and add changes to this tab that will be seen only by you. Learn more ›
×
You can save this tab as Personal to edit and correct it or add notes. All changes will be seen only by you. Learn more »
launch autoscroll
font size
0
reset
how to read this tab
guitar tuner
edit
Autoscroll
slow
fast
+/-
esc
set tempo
stop
-------------------------------------------------------------------------------
                             SONG NAME - Band Name
-------------------------------------------------------------------------------
Tabbed by:
E-mail:

Tuning:standard tuning

hammer on-h         pull off-p      tap-t

e|--8h6-6--------------------------------------------------------------------|
B|--------t8-8h6-6-----------------------------------------------------------|
G|------------------t8-8p5---------------------------------------------------|
D|--------------------------8/10---------------------------------------------|
A|---------------------------------------------------------------------------|
E|---------------------------------------------------------------------------|

e|-----11-13/15--------------------------------------------------------------|
B|--13-----------------------------------------------------------------------|
G|---------------------------------------------------------------------------|
D|---------------------------------------------------------------------------|
A|---------------------------------------------------------------------------|
E|---------------------------------------------------------------------------|
verse
e|--8--8--8--8-----6--6--6--6------6--6--6--6------12--12--12--12------------|
B|--8--8--8--8-----8--8--8--8------6--6--6--6------12--12--12--12------------|
G|--8--8--8--8-----7--7--7--7------7--7--7--7------12--12--12--12------------|
D|---------------------------------------------------------------------------|
A|---------------------------------------------------------------------------|
E|---------------------------------------------------------------------------|
chours
e|--8--8--8--8-----8--8--8--8------6--6--6--6------6--6--6--6----------------|
B|--9--9--9--9-----8--8--8--8------8--8--8--8------8--8--8--8----------------|
G|--8--8--8--8-----8--8--8--8------8--8--8--8------7--7--7--7----------------|
D|---------------------------------------------------------------------------|
A|---------------------------------------------------------------------------|
E|---------------------------------------------------------------------------| 


************************************

| /   slide up
| \   slide down
| h   hammer-on
| p   pull-off
| ~   vibrato
| +   harmonic
| x   Mute note
| b   Bend
| pb  Pre-bend
| br  Bend release
| pbr Pre-bend release
| brb Bend release bend

************************************
Suggest correction
Creating personal tab
Creating personal tab
You can edit any tab online and save it as your Personal.

You can edit, replace or remove any tab part or add personal notes – all changes will be seen only by you.

Personal tabs can be accessed anytime from any device, even offline.
Learn more »
comments
print report bad tab
80 comments total. Showing first comments.
+3 reply
jayhack911 54 Jun 13, 2016 04:11 PM

thanks for this, just perfect :)

0 reply
SamWright170900 57 Jun 13, 2016 04:17 PM

you're *ay jay

0 reply
SamWright170900 57 Jun 13, 2016 05:24 PM

yeh very gay jay.......wuckin fankers

guest
You may want to rate the tab now too:
select rating
Wanna post a correction for this tab? Suggest correction