Oops, an error
Loading. Please wait.

Rock Steady chords

version 1
version 1

Whole song

Interactive

4,421 views 12 this week
2 commentsread comments
1 2 3 4 5
x 3
add to favorites
×
Save as Personal and add changes to this tab that will be seen only by you. Learn more ›
×
You can save this tab as Personal to edit and correct it or add notes. All changes will be seen only by you. Learn more »
launch autoscroll
font size
0
reset
transpose
0
reset
display chords
guitar tuner
edit
Autoscroll
slow
fast
+/-
esc
set tempo
stop
Strumming
There is no strumming pattern for this song yet. and get +5 IQ
-------------------------------------------------------------------------------
                             Rock Steady - Chris Murray / Venice Shoreline Chris
-------------------------------------------------------------------------------
Tabbed by: Mike
Email: michaeldean_566@hotmail.com
Best song ever by the best guy ever. Enjoy. My first tab, but I think it's all right.
Tell me if you know different.

Tuning: Standard

Intro + Verse chords - the part where Chris is singing "Rock Steady, steady with me

    A x2   D x3  E x1  A x2
e|--5------5-----7-----5----------------------------------------------------|
B|--5------6-----7-----5----------------------------------------------------|
G|--6------6-----8-----6----------------------------------------------------|
D|--7------6-----9-----7----------------------------------------------------|
A|--7------5-----9-----7----------------------------------------------------|
E|--5------x-----7-----5----------------------------------------------------|

Intro (Riff) - probably on a bass but works on guitar too. Plays through whole song except Bridge, I think.

e|--------------------------------------------------------------------------|
B|--------------------------------------------------------------------------|
G|--------------------------------------------------------------------------|
D|--------------------------------------------------------------------------|
A|--------7----9--12---7-----7----------------------------------------------|
E|---5--9---10-----10---5--5------------------------------------------------|

Bridge chords (work timing / rhythm out from CD - those are the right chords,
just not written in quite the right places in relation to the words) 
E x2   D  x2                  A x4
    I don't wanna change the world, tonight
E x2   D  x2                  A x4
   Just tell me if it, feels right, Darlin'
A x2   D  x2     E x2            D x2
   This moment, can never repeat, will you
A x2   D x3      E x1        A x2   
   Rock steady, steady with me

| /  slide up
| \  slide down
| H  hammer-on
| p  pull-off
| ~  vibrato
| +  harmonic
| x  Mute note

Cheers, enjoy the tab.
===============================================================================

            
            
Suggest correction
Creating personal tab
Creating personal tab
You can edit any tab online and save it as your Personal.

You can edit, replace or remove any tab part or add personal notes – all changes will be seen only by you.

Personal tabs can be accessed anytime from any device, even offline.
Learn more »
Give kudos to tab author, rate the tab!
1 2 3 4 5
comments
print report bad tab
2 comments total.
0 reply
hippy12 51 Mar 06, 2007 09:54 AM

thanks a lot! It's always nice to see people posting tabs for great artists like Chris Murray.

0 reply
Sibilith 505 Sep 26, 2013 06:23 AM

The D and E chords in your Intro/Verse section aren't D or E chords.

A D E A
e|------------------------|
B|---------7-----9--------|
G|--6------7-----9-----6--|
D|--7------7-----9-----7--|
A|--7------------------7--|
E|------------------------|

Finger the whole chords, of course, but I'm almost positive these are the only strings you play when playing the chords. Cheers!

guest
Wanna post a correction for this tab? Suggest correction