Oops, an error
Loading. Please wait.

Shelter Tab

77 views 1 this week
no commentswrite comment
1 2 3 4 5
please rate
add to favorites
launch autoscroll
font size
0
reset
how to read this tab
guitar tuner
Tab Pro tools
  • play this tab
  • loop segment
  • change instrument
  • show fretboard
  • metronome
Autoscroll
slow
fast
+/-
esc
set tempo
stop
Contributor
Difficulty
novice
Intro
E:|-------------------------------------------------------|
B:|-------------------------------------------------------|
G:|--7--5-4-7-7-5-4-5-4---4--5-4--2-----------------------|
D:|---------------------7------------5--------------------|
A:|-------------------------------------------------------|
E:|-------------------------------------------------------|

E:|-------------------------------------------------------|
B:|-------------------------------------------------------|
G:|--7--5-4-7-7-5-4-5-4---4--5-4--2-----------------------|
D:|---------------------7------------5--------------------|
A:|-------------------------------------------------------|
E:|-------------------------------------------------------|

E:|-------------------------------------------------------|
B:|--15--13-12-15-15-13-12-13-12----12-13-12-10-----------|
G:|------------------------------14-------------12--------|
D:|-------------------------------------------------------|
A:|-------------------------------------------------------|
E:|-------------------------------------------------------|

E:|-------------------------------------------------------|
B:|--15--13-12-15-15-13-12-13-12----12-13-12-10-----------|
G:|------------------------------14-------------12--------|
D:|-------------------------------------------------------|
A:|-------------------------------------------------------|
E:|-------------------------------------------------------|

E:|-------------------------------------------------------|
B:|-------------------------------------------------------|
G:|-------------------------------------------------------|
D:|--------7~---------7\5---------------------------------|
A:|-5h7p5------5h7p5------5/7\5---------------------------|
E:|-------------------------------------------------------|

E:|-------------------------------------------------------|
B:|------15------------------16b17-16---------------------|
G:|---14---14b15r14-12-12~-------------14\12~--12-12-12---|
D:|-------------------------------------------------------|
A:|-------------------------------------------------------|
E:|-------------------------------------------------------|

E:|-------------------------------------------------------|
B:|--15b16--17--16-16-----15~\\\\-------------------------|
G:|--------------------17---------------------------------|
D:|-------------------------------------------------------|
A:|-------------------------------------------------------|
E:|-------------------------------------------------------|

comments
We did not receive enough feedback on this tab! Please rate:
print report bad tab
1 2 3 4 5
I want to post or [tab]
guest
You may want to rate the tab now too:
select rating
Please do not post tabs as comments. Select "correction" instead!