Oops, an error
Loading. Please wait.

Train Bass Tab

222 views 1 this week
no commentswrite comment
1 2 3 4 5
3 more votes to show rating
add to favorites
launch autoscroll
font size
0
reset
guitar tuner
Autoscroll
slow
fast
+/-
esc
set tempo
stop
Help us to improve Ultimate-Guitar.com Take our survey!
×
Author
Difficulty
intermediate
This is an unfinished version of the song by Chris Potter called "Train".

Here is the main verse

G|------------------------------------------------------|
D|------5-----5-----------------------------------------|
A|--------5-7----------5---5-7-------------5---5-7------|
E|--5-----------5-8---8---------5---5-8---8-------------|      

G|------------------------------------------------------|
D|------5-----5-----------------------------------------|
A|--------5-7----------4---4-7------------4---4-7-------|
E|--1-----------1-7---7--------1---1-7---7--------------|

Suggest correction
Give kudos to tab author, rate the tab!
1 2 3 4 5
comments
print report bad tab
guest
You may want to rate the tab now too:
select rating
Wanna post a correction for this tab? Suggest correction