Oops, an error
Loading. Please wait.

All Summer Long bass

384 views 3 this week
no commentswrite comment
1 2 3 4 5
1 last vote to show rating
add to favorites
×
Save as Personal and add changes to this tab that will be seen only by you. Learn more ›
×
You can save this tab as Personal to edit and correct it or add notes. All changes will be seen only by you. Learn more »
launch autoscroll
font size
0
reset
guitar tuner
edit
Autoscroll
slow
fast
+/-
esc
set tempo
stop
Author
Difficulty
Author's note : Please rate this bass tab from Chris REA's lovely song from King of the
Beach album and see for more bass tabs under Bruno Frenchy... Don't hesitate to leave me
a message for any suggestion... (37 tabs so far, studied by almost 38000 musicians 
around the world)...
Enjoy !!


Intro [Guitar / Drums]
   Bass – 00:07
G-|---------------------------|----------------------------|
D-|---------------------------|----------------------------|
A-|---------------------------|----------------------------|
E-|-5-----3-----1-----3-------|-5-----3-----1-----3--------|

G-|----------------------------|
D-|----------------------------|
A-|----7-----5-----3-----5-----|
E-|-5-----3-----1-----3--------|


Verse 1 - 00:21
G-|----------------------------|
D-|----------------------------|
A-|----7-----5-----3-----5-----|
E-|-5-7---3-5---1-3---3-3------|
   I’ve got my wheels
   I’ve got my clean shirt
G-|----------------------------|
D-|----------------------------|
A-|----7-----5-----3-----5-----|
E-|-5-7---3-5---1-3---3-3------|
    I’ve got enough
    To get me where she’ll be

Verse 2 - 00:41
G-|----------------------------|
D-|----------------------------|
A-|----7-----5-----3-----5-----|
E-|-5-7---3-5---1-3---3-3------|
    Skin is burning
    Hearts on fire
G-|----------------------------|
D-|----------------7--5-75-----|
A-|----7-----5--5-7------------|
E-|-5-7---3-5------------------|
    Take my own dream
    To the sea

Verse 3 - 00:54
G-|----------------------------|
D-|----------------------------|
A-|----7-----5-----3-----5-----|
E-|-5-7---3-5---1-3---3-3------|
    All I know is
    She will be there
G-|----------------------------|
D-|----------------7--5-75-----|
A-|----7-----5--5-7------------|
E-|-5-7---3-5------------------|
    Turn it up
    Turn it on


Bridge 01:07
G-|----------------------------|
D-|----------------------------|
A-|----7-----5-----3-----5-----|
E-|-5-----3-----1-----3--------|
    All summer long
G-|----------------------------|
D-|----------------7--5-75-----|
A-|----7-----5--5--------------|
E-|-5-----3--------------------|
    All summer long


Pause - 01:22 .....


Verse 5 - 01:29
G-|----------------------------|
D-|----------------------------|
A-|----7-----5-----3-----5-----|
E-|-5-7---3-5---1-3---3-3------|
    Look ahead
    There’s nothing but blue sky
G-|----------------------------|
D-|----------------7--5-75-----|
A-|----7-----5--5-7------------|
E-|-5-7---3-5------------------|
    Kiss the rain
    And laugh as it goes by




Verse 6 - 01:29
G-|----------------------------|
D-|----------------------------|
A-|----7-----5-----3-----5-----|
E-|-5-7---3-5---1-3---3-3------|
    Learn to smile
    While everyone else cries
G-|----------------------------|
D-|----------------7--5-75-----|
A-|----7-----5--5-7------------|
E-|-5-7---3-5------------------|
    Sing this song
    All summer long



Bridge 01:57
G-|----------------------------|
D-|----------------------------|
A-|----7-----5-----3-----5-----|
E-|-5-----3-----1-----3--------|
    All summer long
G-|----------------------------|
D-|----------------7--5-75-----|
A-|----7-----5--5--------------|
E-|-5-----3--------------------|
    All summer long


Pause - 02:10 .....


Verse 7 - 02:17
G-|----------------------------|
D-|----------------------------|
A-|----7-----5-----3-----5-----|
E-|-5-7---3-5---1-3---3-3------|
    I’ve been waiting
    Through the winter
G-|----------------------------|
D-|----------------7--5-75-----|
A-|----7-----5--5-7------------|
E-|-5-7---3-5------------------|
    I’ve been dreaming
    Of this day


Verse 8 - 02:31
G-|----------------------------|
D-|----------------------------|
A-|----7-----5-----3-----5-----|
E-|-5-7---3-5---1-3---3-3------|
    All I know is
    She will be there
G-|----------------------------|
D-|----------------7--5-75-----|
A-|----7-----5--5-7------------|
E-|-5-7---3-5------------------|
    Turn it up
    Turn it on

G-|----------------------------|
D-|----------------------------|
A-|----7-----5-----3-----5-----|
E-|-5-7---3-5---1-3---3-3------|
                                  Repeat till fading
G-|----------------------------|
D-|----------------------------|
A-|----7-----5-----3-----5-----|
E-|-5-7---3-5---1-3---3-3------|
    Turn it up
    Turn it up
    Turn it up
    Turn it up
    All summer long

    Nothing but blue sky...
    Nothing but blue sky...


End 03:34
Suggest correction
Creating personal tab
Creating personal tab
You can edit any tab online and save it as your Personal.

You can edit, replace or remove any tab part or add personal notes – all changes will be seen only by you.

Personal tabs can be accessed anytime from any device, even offline.
Learn more »
Give kudos to tab author, rate the tab!
1 2 3 4 5
comments
print report bad tab
guest
You may want to rate the tab now too:
select rating
Wanna post a correction for this tab? Suggest correction