Oops, an error
Loading. Please wait.

Blue Cafe bass

481 views 12 this week
no commentswrite comment
1 2 3 4 5
3 more votes to show rating
add to favorites
×
Save as Personal and add changes to this tab that will be seen only by you. Learn more ›
×
You can save this tab as Personal to edit and correct it or add notes. All changes will be seen only by you. Learn more »
launch autoscroll
font size
0
reset
guitar tuner
backing track
0:00
0:00
edit
Autoscroll
slow
fast
+/-
esc
set tempo
stop
Author
Difficulty
Chris REA
Blue Cafe

Bass Tabs 

Tempo : 140 bpm
Tuning: E/A/D/G


Instrumental Intro: 00:02 [Bass / Guitar / Drums / bongos]
G-|----------------------||-
D-|----------------------||- 
A-|-5g-5/8g--8-5~--------||- X4
E-|----------------5g-8h-||-


Part2: 00:15
G-|--------------------|--------------------|-
D-|--------------------|--------------------|-
A-|--5g-----5--0-5-0-5-|-4-5-7--0-7-0-7-0-7-|-
E-|-------5------------|--------------------|-

G-|--------------------|--------------------||-
D-|-----5--0-5-0-5-0-5-|-7-5----------------||-
A-|-7-8----------------|-----7--0-7-0-7-0-7-||-
E-|--------------------|--------------------||-


Verse1 : 00:29
G-|--------------------|--------------------|-
D-|--------------------|--------------------|-
A-|-8-7-5----5-0-5-0-5-|-4-5-7--0-7-0-7-0-7-|-
E-|--------5-----------|--------------------|-

My world is miles of endless roads
That leaves a trail of broken dreams

G-|--------------------|--------------------||-
D-|-----5--0-5-0-5-0-5-|-7-5----------------||-
A-|-7-8----------------|-----7--0-7-0-7-0-7-||-
E-|--------------------|--------------------||-
Where have you been I hear you say
I'll meet you at the blue cafe

Part2:
G-|--------------------|--------------------|-
D-|--------------------|--------------------|-
A-|-8-7-5----5-0-5-0-5-|-4-5-7--0-7-0-7-0-7-|-
E-|--------5-----------|--------------------|-
This is where the one who knows
Meets the one who doesn't care

G-|--------------------|--------------------||-
D-|-----5--0-5-0-5-0-5-|-7-5----------------||-
A-|-7-8----------------|-----7--0-7-0-7-0-7-||-
E-|--------------------|--------------------||-
The cards of fate the older shows
To the younger one who dares to take
A chance of no return


Bridge1: 00:57
G-|----------------------||-
D-|----------------------||- 
A-|-5g-5/8g--8-5~--------||- X2
E-|----------------5g-8h-||-


Chorus1: 01:03
G-|--------------------|--------------------|-
D-|--------------------|-----5g-0-5-0-5-0-5-|-
A-|--5g-----5--0-5-0-5-|-5-7----------------|-
E-|-------5------------|--------------------|-
Where have you been
Where are you going to

G-|--------------------|-------------|---------------|-
D-|-5-7----------------|-5-6-7g-7-7~~|-5-7-5g--------|-
A-|-----7g-0-7-0-7-0-7-|-------------|---------8-7-5-|-
E-|--------------------|-------------|---------------|-
I wanna know what's new
I wanna go with you

Part2:
G-|------------------|--------------------|---------------------||-
D-|------------------|-----5g-0-5-0-5-0-5-|-5-7-----------------||-
A-|---5--0-5-0-5-0-5-|-5-7----------------|-----7g-0-7-0-7-0-7g-||-
E-|-5g---------------|--------------------|---------------------||-
What have you seen
What do you know that's new
Where are you going to ?

Cos I wanna go with you


Bridge: 01:28
G-|----------------------||-
D-|----------------------||- 
A-|-5g-5/8g--8-5~--------||- X2
E-|----------------5g-8h-||-


Verse2: 01:35
G-|--------------------|--------------------|-
D-|--------------------|--------------------|-
A-|-5g-------5-0-5-0-5-|-4-5-7--0-7-0-7-0-7-|-
E-|--------5-----------|--------------------|-
The cast is great the price is high
Take all you know and say goodbye

G-|--------------------||----------------------||-
D-|-----5--0-5-0-5-0-5-||----------------------||-
A-|-7-8----------------||-5g-5/8g--8-5~--------||-
E-|--------------------||----------------5g-8h-||-
Your innocence experience
Mean nothing now

Part2:
G-|--------------------|--------------------|-
D-|--------------------|--------------------|-
A-|--5g-----5--0-5-0-5-|-4-5-7--0-7-0-7-0-7-|-
E-|-------5------------|--------------------|-
Cos this is where the one who knows
Meets the one who doesn't care

G-|--------------------|--------------------||-
D-|-----5--0-5-0-5-0-5-|-7-5----------------||-
A-|-7-8----------------|-----7--0-7-0-7-0-7-||-
E-|--------------------|--------------------||-
Where have you been I hear you say
I'll meet you at the blue... cafe


Bridge: 02:02
G-|----------------------||-
D-|----------------------||- 
A-|-5g-5/8g--8-5~--------||- X2
E-|----------------5g-8h-||-

 
Chorus2: 02:08
G-|--------------------|--------------------|-
D-|--------------------|-----5g-0-5-0-5-0-5-|-
A-|--5g----5--0-5-0-5--|-5-7----------------|-
E-|------5-------------|--------------------|-
Where have you been
Where are you going to

G-|--------------------|-------------|---------------|-
D-|-5-7----------------|-5-6-7g-7-7~~|-5-7-5g--------|-
A-|-----7g-0-7-0-7-0-7-|-------------|---------8-7-5-|-
E-|--------------------|-------------|---------------|-
I wanna know what's new    
I wanna go with you

Part2:
G-|------------------|--------------------|---------------------||-
D-|------------------|-----5g-0-5-0-5-0-5-|-5-7-----------------||-
A-|---5--0-5-0-5-0-5-|-5-7----------------|-----7g-0-7-0-7-0-7g-||-
E-|-5g---------------|--------------------|---------------------||-
What have you seen
What do you know that's new
Where are you going to ?

Cos I wanna go with you


Bridge2: 02:33
G-|----------------------||-
D-|----------------------||- 
A-|-5g-5/8g--8-5~--------||- X10
E-|----------------5g-8h-||-

So meet me down... at the Blue Cafe

I say, meet me down... at the Blue cafe


Chorus3: 03:06
G-|--------------------|--------------------|-
D-|--------------------|-----5g-0-5-0-5-0-5-|-
A-|--5g----5--0-5-0-5--|-5-7----------------|-
E-|------5-------------|--------------------|-
Where have you been
Where are you going to

G-|--------------------|-------------|---------------|-
D-|-5-7----------------|-5-6-7g-7-7~~|-5-7-5g--------|-
A-|-----7g-0-7-0-7-0-7-|-------------|---------8-7-5-|-
E-|--------------------|-------------|---------------|-
I wanna know what's new
I wanna go with you

Part2:
G-|------------------|--------------------|---------------------||-
D-|------------------|-----5g-0-5-0-5-0-5-|---------------------||-
A-|---5--0-5-0-5-0-5-|-5-7----------------|-----------------(5)-||-
E-|-5g---------------|--------------------|-3-5--0-5-0-5-5-5----||-
What have you seen
What do you know that's new
Where are you going to ?

Cos I wanna go with you


Instrumental Chorus: 02:02(repaet till fading out)
G-|--------------------|--------------------|-
D-|--------------------|-----5g-0-5-0-5-0-5-|-
A-|--5g----5--0-5-0-5--|-5-7----------------|-
E-|------5-------------|--------------------|-

G-|--------------------|-------------|---------------||
D-|-5-7----------------|-5-6-7g-7-7~~|-5-7-5g--------||
A-|-----7g-0-7-0-7-0-7-|-------------|---------8-7-5-|| XXX
E-|--------------------|-------------|---------------||

Down to the Blue... at the Blue Cafe

I'll meet there... at the Blue cafe


End 04:47


Tablature Legend ----------------  
| S  slap 
| P  pop 
| x  mute note 
| .  full stop
| /  slide up 
| \  slide down 
| h  hammer-on 
| p  pull-off 
| g  grace note 
| ~  vibrato 
| ^  brush up
| >  Link to next note

            
            
Suggest correction
Creating personal tab
Creating personal tab
You can edit any tab online and save it as your Personal.

You can edit, replace or remove any tab part or add personal notes – all changes will be seen only by you.

Personal tabs can be accessed anytime from any device, even offline.
Learn more »
Give kudos to tab author, rate the tab!
1 2 3 4 5
comments
print report bad tab
guest
You may want to rate the tab now too:
select rating
Wanna post a correction for this tab? Suggest correction