Oops, an error
Loading. Please wait.

Daytona Bass Tab

588 views 1 this week
no commentswrite comment
1 2 3 4 5
1 last vote to show rating
add to favorites
launch autoscroll
font size
0
reset
guitar tuner
Autoscroll
slow
fast
+/-
esc
set tempo
stop
Help us to improve Ultimate-Guitar.com Take our survey!
×
Author
Difficulty
intermediate
Intro: play x2
G-------------|-----------|-
D-------------|-----------|-
A-----3---3---|-3----3--3-|- 
E-3-5----3----|--3-5---3--|-
  
Verse1: 00:12   x2
G-----------|-----------|----------------------|-
D-----------|-----------|----------------------|-
A-----3---3-|-----3---3-|-----3--1-------3---3-|-
E-3-5----3--|-3-5----3--|-3-5------1--0-----3--|-
Diamond dream    When the sun don't shine    I close my eyes to see
Twelve wild horses     In silver chain      Calling out to me


Chorus1 :00:36  X3
G-----------|-----------|--------------||------------|-
D-----3---3-|---3-5--5--|-5/3----------||------------|-
A--------3--|-3-----5---|-----5-3----3-||------------|-
E-3-5-------|-----------|----------3---||-3--5--0--3-|-
  Oh Daytona              Shine your light on me
  Oh Daytona              Shine your light on me
G-----------|-----------|--------------||------------|-
D-----3---3-|---3-5--5--|-5/3----------||------------|-
A--------3--|-3-----5---|-----5-3----3-||-----3---3--|-
E-3-5-------|-----------|----------3---||-3-5----3---|-
 


Verse2 : 01:23  x2
G|-----------|-----------|----------------------|-
D|-----------|-----------|----------------------|-
A|-----3---3-|-----3---3-|-----3--1-------3---3-|-
E|-3-5----3--|-3-5----3--|-3-5------1--0-----3--|-
Now she ain't easy     So you take good care   Or she will scream down on your lust
She can please you     Like no other    Or she can leave you eating dust


Chorus2 :01:47  
G-----------|-----------|--------------||------------|-
D-----3---3-|---3-5--5--|-5/3----------||------------|-
A--------3--|-3-----5---|-----5-3----3-||------------|-
E-3-5-------|-----------|----------3---||-3--5--0--3-|-
  Oh Daytona              Shine your light on me
G-----------|-----------|--------------||------------|-
D-----3---3-|---3-5--5--|-5/3----------||------------|-
A--------3--|-3-----5---|-----5-3----3-||-----3---3--|-
E-3-5-------|-----------|----------3---||-3-5----3---|-


Solo Guitar: 02:10

Bass  X15
G|-----------|-
D|-----------|-
A|-3----3--3-|-
E|--3-5---3--|-


Verse3: 02: 
G|-----------|-----------|----------------------|-
D|-----------|-----------|----------------------|-
A|-3----3--3-|-3----3--3-|-3----3--1------3---3-|-
E|--3-5---3--|--3-5---3--|--3-5------1--0----3--|-
Burning passion        Heat my day       Let me sit inside your wonder
Cloudless daydream  Oh dance of dances   To have tamed the sound of thunder


Chorus3 :02:58  X3
G-----------|-----------|--------------||------------|-
D-----3---3-|---3-5--5--|-5/3----------||------------|-
A--------3--|-3-----5---|-----5-3----3-||------------|-
E-3-5-------|-----------|----------3---||-3--5--0--3-|-
  Oh Daytona              Shine your light on me
  Oh Daytona              Shine your light on me
G-----------|-----------|--------------||------------|-
D-----3---3-|---3-5--5--|-5/3----------||------------|-
A--------3--|-3-----5---|-----5-3----3-||-----3---3--|-
E-3-5-------|-----------|----------3---||-3-5----3---|-



Riff Drums + Guitar: 03:44 
G|-----------|-
D|-----------|-
A|-3----3--3-|- x1
E|--3-5---3--|-


G|-----------|-
D|-----------|-
A|-3--pause--|-
E|-----------|-

Reprise with final Chorus:  03:57
G|---------||-------------|-
D|---------||-------------|-
A|-3--3--3-||--3----3--3--|- xx
E|-----3---||---3--5---3--|-
Daytona... hey hey...

Daytona... hey hey...
Daytona... hey hey...
Daytona... hey hey...

Racing car engine sound

End fading: 04:47
Suggest correction
Give kudos to tab author, rate the tab!
1 2 3 4 5
comments
print report bad tab
guest
You may want to rate the tab now too:
select rating
Wanna post a correction for this tab? Suggest correction