Oops, an error
Loading. Please wait.

Lets Dance bass

version 2
version 2

Whole song

Interactive

572 views 9 this week
1 commentread comment
1 2 3 4 5
2 more votes to show rating
add to favorites
×
Save as Personal and add changes to this tab that will be seen only by you. Learn more ›
×
You can save this tab as Personal to edit and correct it or add notes. All changes will be seen only by you. Learn more »
launch autoscroll
font size
0
reset
guitar tuner
backing track
0:00
0:00
edit
Autoscroll
slow
fast
+/-
esc
set tempo
stop
Author
Difficulty
Chris REA
Let's Dance


Bass Tabs 


Tuning: E/A/D/G
Tempo : 175 bpm
Key signature: D



Intro: 00:02 [Guitar / Drums / Bass ]
G|-----------------|-----------------|-
D|-----------------|-----------------|-
A|---5g-----5g-----|---5g-----5g-----|- X4
E|--------5--------|--------5--------|-

00:23
G|---------4-7-4-----||-------------------||-
D|---4-4-7-------7-4-||---------2-5-2-----||-
A|\5-----------------||---2-2-5-------5-2-||- X2
E|-------------------||-3-----------------||-

Verse1: 00:33
G|-------4-------4-|-----------------|-
D|---4-7-----4-7---|-------2-------2-|-
A|-5-------5-------|---2-5-----2-5---|- X4
E|-----------------|-3-------3-------|-
When you sing of the joy only love can bring
Heaven knows it's in my heart and my soul

00:56
G|-----------------|-----------------|-
D|--------4g---5g--|--------4g---5g--|-
A|---5g------------|---5g------------|- 
E|-----------------|-----------------|-
Caught in a world full of tears
So many bad times and fears

01:07
G|--------------------||-
D|--------------------||-
A|--------------------||-
E|---5g--5/7g--3g/5g--||-
So while there's a chance and you're near

Bridge1: 01:13
G|---------4-7-4-----||-------------------||-
D|---4-4-7-------7-4-||---------2-5-2-----||-
A|\5-----------------||---2-2-5-------5-2-||- X2
E|-------------------||-3-----------------||-
Let's dance
Let's dance

Break1: 01:23
G|-------4-------4-|---------4-7-4-----||-
D|---4-7-----4-7---|---4-4-7-------7-4-||-
A|-5-------5-------|-5-----------------||- X2
E|-----------------|-------------------||-

Verse2: 01:34
G|-------4-------4-|-----------------|-
D|---4-7-----4-7---|-------2-------2-|-
A|-5-------5-------|---2-5-----2-5---|- X4
E|-----------------|-3-------3-------|-
There's a world far away from the one we see
There's a dream I will never let go

01:57
G|-----------------|-----------------|-
D|--------4g---5g--|--------4g---5g--|-
A|---5g------------|---5g------------|- 
E|-----------------|-----------------|-
One thing is certainly true
This moment's for me and for you

02:07
G|--------------------||-
D|--------------------||-
A|--------------------||-
E|---5g--5/7g--3g/5g--||-
So while there's not a thing that we can do

Bridge2: 02:13
G|---------4-7-4-----||-------------------||-
D|---4-4-7-------7-4-||---------2-5-2-----||-
A|\5-----------------||---2-2-5-------5-2-||- X2
E|-------------------||-3-----------------||-
Let's dance
Let's dance

Break2: 02:24
G|-------4-------4-|---------4-7-4-----||-
D|---4-7-----4-7---|---4-4-7-------7-4-||-
A|-5-------5-------|-5-----------------||- X4
E|-----------------|-------------------||-

Intrumental(1): 02:46
G|----------------------------------------------|-
D|----/9999999---------------/9999999-9/7777777-|-
A|-5/9---------9/7777777--7/9-------------------|- 
E|----------------------------------------------|-
Let's dance
G|----------------------------------------------|-------|-
D|----/9999999---------------/9999999-9/7777777-|-7-9-7-|-
A|-5/9---------9/7777777--7/9-------------------|-------|- 
E|----------------------------------------------|-------|-
Let's dance

Break2: 03:08
G|-------4-------4-|---------4-7-4-----||-
D|---4-7-----4-7---|---4-4-7-------7-4-||-
A|-5-------5-------|-5-----------------||- X4
E|-----------------|-------------------||-
Let's dance
Let's dance
Let's dance
Let's dance

Outro: 03:30
G|---------4-7-4-----||-------------------||-
D|---4-4-7-------7-4-||---------2-5-2-----||-
A|\5-----------------||---2-2-5-------5-2-||- X4
E|-------------------||-3-----------------||-
Let's dance
Let's dance
Let's dance
Let's dance
G|-------4-------4-|-----------------|-
D|---4-7-----4-7---|-------2-------2-|-
A|-5-------5-------|---2-5-----2-5---|- XXX till fade out
E|-----------------|-3-------3-------|-
Let's dance
Let's dance



End 04:16


Tablature Legend ----------------  
| S  slap 
| P  pop 
| x  mute note
| .  full stop
| /  slide up 
| \  slide down 
| h  hammer-on 
| p  pull-off 
| g  grace note 
| ~  vibrato 
| ^  brush up
Suggest correction
Creating personal tab
Creating personal tab
You can edit any tab online and save it as your Personal.

You can edit, replace or remove any tab part or add personal notes – all changes will be seen only by you.

Personal tabs can be accessed anytime from any device, even offline.
Learn more »
Give kudos to tab author, rate the tab!
1 2 3 4 5
comments
print report bad tab
1 comment total.
0 reply
sheila scotty 16 Aug 26, 2015 01:57 PM

Great job here... great improvement from other version... Thanks !

guest
You may want to rate the tab now too:
select rating
Wanna post a correction for this tab? Suggest correction