Oops, an error
Loading. Please wait.

Beartooth Point Tab

37 views 15 this week
no commentswrite comment
1 2 3 4 5
3 more votes to show rating
add to favorites
launch autoscroll
font size
0
reset
how to read this tab
guitar tuner
Autoscroll
slow
fast
+/-
esc
set tempo
stop
Help us to improve Ultimate-Guitar.com Take our survey!
×
Author
Tuning
D A D G B E


[Intro]

e|-------1-0-----------------------------------------------------------------|
B|-----3-----3-------3~-----1~-----2~----------------------------------------|
G|---2---------2-----2~-----2~-----2~----------------------------------------|
D|-0-------------0---0~-----0~-----0~----------------------------------------|
A|-------------------0~-----0~-----0~----------------------------------------|
D|-------------------0~-----0~-----0~----------------------------------------|


[Verse]

e|-1-----------1---3-----------1-------1-------1-------1---------------------|
B|---3---3---3---3---3---3---3-------3-------3-------3-----------------------|
G|-----2---0-----------0---2-----2-0-----0-----------------------------------|
D|-----------------------------------------3-----3-2-------------------------|
A|---------------------------------------------------------------------------|
D|---------------------------------------------------------------------------|


[Chorus]

e|-----1-------1-------1-------1-------1-------1-----1-1-------1-------------|
B|---3---3---3-------3-------3-------3-------3---------------3---------------|
G|-2-------2-----2-0-----0-0-----0-2-----2-2-----2-0-----0-0-----------------|
D|-0-------------------------------------------------------------------------|
A|---------------------------------------------------------------------------|
D|---------------------------------------------------------------------------|


[Outro]

e|---------------------------------------------------------------------------|
B|-----3---3---3---3---3---3---3-------3---3---3---3---3---3---3-------------|
G|-0-2---2---2---2---0---0---0---0-2-3---3---3---3---2---2---0---3\2---------|
D|-------------------------------------------------------------------0-------|
A|---------------------------------------------------------------------------|
D|---------------------------------------------------------------------------|

e|-------------------------------------------------1-------------------------|
B|-3---3---3---3---3---3---3-------3---3---3---3-------3---3---3-------------|
G|---2---2---2---0---0---0---0-2-3---3---3---2---0---0---3---2---------------|
D|---------------------------------------------------------------0-----------|
A|---------------------------------------------------------------------------|
D|---------------------------------------------------------------------------|

e|---------------------------------------------------------------------------|
B|-3---3---3---3---3---3---3-------3---3---3-------3-------3---3-------------|
G|---2---2---2---0---0---0---0-2-3---3---3---3-2-0---0-2-3---2---------------|
D|---------------------------------------------------------------0~~~--------|
A|---------------------------------------------------------------------------|
D|---------------------------------------------------------------------------|

 

************************************

| \  Slide down

************************************
Suggest correction
Give kudos to tab author, rate the tab!
1 2 3 4 5
comments
print report bad tab
guest
You may want to rate the tab now too:
select rating
Wanna post a correction for this tab? Suggest correction