Oops, an error
Loading. Please wait.

Where Do We Go From Here Tab

651 views 1 this week
1 commentread comment
1 2 3 4 5
please rate
add to favorites
launch autoscroll
font size
0
reset
how to read this tab
guitar tuner
Tab Pro tools
  • play this tab
  • loop segment
  • change instrument
  • show fretboard
  • metronome
×
Best way to learn
"Where Do We Go From Here"
Autoscroll
slow
fast
+/-
esc
set tempo
stop
Contributor
           A                  C#m                F#m                D      |
e ----------------| -------------------| ----------------| ---------2------|
B----------5------| ----------5--------| ----------2-----| ---------2------|
G---------5-------| ---------6---------|-----------2-----| -----3-------3--|
D------7------7---| ------6--------6---| -------4------4-| --0-------------|
A-----------------| ---4---------------| ----------------| ----------------|
E---5-------------| -------------------| --2-------------| ----------------|

         F#m*                   E
| -----------------|--0---------|
|---------10---10--|--0---------|
|--------11----11--|--1---------|
|----11--------11--|--2---------|
| ---9-----------9-|--2---------|
| -----------------|--0---------|

        
           Bm                Dm           C#m (chorus)       Cm (chorus)        
e ---------------| -------------------| --------------| --------------| 
B------------5---| ----------6--------| --------5-----| ------4-------| 
G-----------4----| ---------7---------|--------6------| ------5-------| 
D-------4------4-| ------7--------7---| -------6------| ------5-------| 
A---2------------| ---5---------------| ---4----------| --3-----------|
E----------------| -------------------| --------------| --------------| 




A         C#m      F#m    D
  Yeah Yeah, Yeah Yeah,  Dananananana
A           C#m      F#m*
  Yeah Yeah, Yeah Yeah, 
E
Uh

A         C#m
  Well maybe we could take our chances
F#m            D                   A
  Or maybe we can see what's on your mind
            C#m                   F#m*
  I wonder if we look inside our hearts, 
          E          A
  exactly what we'd find?
                  C#m                F#m      D
  Or maybe we can take a lot of pain away 
A              C#m             F#m*      E     
  Or maybe we can heal the world today 
A         C#m        Bm       Dm        
  Or maybe, you know, something I don't 
A                D     Dm  
  If you do then tell me... 


A                    C#m
  Where do we go from here
F#m                   D
  Where do we go from here
A                    C#m Cm Bm       Dm
  Where do we go from here     
A                   C#m
  Where do we go from here
F#m*                 D
  Where do we go from here   
A                           C#m Bm
  Where do we go from here      
Dm                     A
  God only knows


A          C#m      F#m    D       A
  Yeah Yeah, Yeah Yeah  Dananananana
          C#m             
  Yeah Yeah, Yeah Yeah, Uh Uh 
F#m*
(Where, where, where, where)


A                    C#m
  Where do we go from here
F#m                   D
  Where do we go from here
A                    C#m Cm Bm       Dm
  Where do we go from here    
A                   C#m
  Where do we go frm here
F#m*                 Dm
  Where do we go from here   (Uh)
A                   C#m Cm Bm
  Where do we go from here (Uh)
Dm                      A
  God only knows
comments
We did not receive enough feedback on this tab! Please rate:
print report bad tab
1 2 3 4 5
1 comment total.
0 reply
amandac_alves wrote on January 24 2013, 06:51 am

Sorry guys, I wrote something wrong.
The right way to play D it's like this:

D9
|---------0------|
|---------3------|
|-----2-------2--|
|--0-------------|

I want to post or [tab]
guest
You may want to rate the tab now too:
select rating
Please do not post tabs as comments. Select "correction" instead!