Oops, an error
Loading. Please wait.

Just Like The Ocean tab

127 views 1 this week
no commentswrite comment
1 2 3 4 5
2 more votes to show rating
add to favorites
×
Save as Personal and add changes to this tab that will be seen only by you. Learn more ›
×
You can save this tab as Personal to edit and correct it or add notes. All changes will be seen only by you. Learn more »
launch autoscroll
font size
0
reset
how to read this tab
guitar tuner
edit
Autoscroll
slow
fast
+/-
esc
set tempo
stop
Author
Difficulty
I posted this tab a while ago, but Chris recently put a tutorial video on Youtube on how to play it properly.  I found that I was WAY wrong, so I used the tutorial to re-work this tab.  Tune your guitar to EACGCe and capo the 5th fret!  Hope you like it, have fun! :)
 
Intro:
e----------------------------------------------------------------------------------
C----0-0-0---0---0-0--0-0-0---0-------------0-0-0---0---0-0---0-0-0---0------------
G----0-0-0---0---0-0--0-0-0---0-------------0-0-0---0---0-0---0-0-0---0------------
C----0-0-0h2~--0~0-0--0-0-0h2~--2/4-4\2-0~--0-0-0h2~--0~0-0---0-0-0h2~--2/4 4\2-0~- x2
A-3~----------------3~--------------------0~----------------0~---------------------
E-1~----------------1~-------------------------------------------------------------

(For the verses, just strum the two chords from the intro, sorta muted a bit)

I have no idea what the chord names are...For the sake of argument, I'll just call them "1" and "2"

1      2
e-x-   e-x-
C-x-   B-0-
G-0-   G-0-
C-0-   C-0-
A-3-   A-0-
E-1-   E-x-

1
Have you heard?
        2
It's a steady stumble
  1
A lonely girl
         2
Make you crack and crumble
   1
I ain't no kid babe
   2
I slept through ages
   1
I read your face
      2
And I kept the pages


(For the prechorus, play the intro again and sing)

e----------------------------------------------------------------------------------
C----0-0-0---0---0-0--0-0-0---0-------------0-0-0---0---0-0---0-0-0---0------------
G----0-0-0---0---0-0--0-0-0---0-------------0-0-0---0---0-0---0-0-0---0------------
C----0-0-0h2~--0~0-0--0-0-0h2~--2/4-4\2-0~--0-0-0h2~--0~0-0---0-0-0h2~--2/4 4\2-0~- x2
A-3~----------------3~--------------------0~----------------0~---------------------
E-1~----------------1~-------------------------------------------------------------
And it's alright if you walk away
And it's alright if you wanna stay

e---------------------------------------------------------------------------
C-0~-0-0-0--0-0-0--0~-0-0-0~-0-0-0~-----------------------------------------
G-0~-0-0-0--0-0-0--0~-0-0-0~-0-0-0-0~-0-0-0-0~-0-0-0~-0~-0-0-0-0~-0-0-0---0-
C-0~-0-0-0--0-0-0--0~-0-0-0~-0-0-0-4~-4-4-4h5~-5-5-4~-2~-2-2-2h4~-4-4-4p2p0- x2
A-3~-3-3-3~-3-3-3--5~-5-5-5~-5-5-5-0~-0-0-0-0~-0-0-0~-0~-0-0-0-0~-0-0-0---0-
E-1~-1-1-1~-1-1-1--3~-3-3-3~-3-3-3------------------------------------------
And it rolls just like the ocean
And it rolls just like the ocean

e---------------------------------------------------------------------------
C-0~-0-0-0--0-0-0--0~-0-0-0~-0-0-0~-----------------------------------------
G-0~-0-0-0--0-0-0--0~-0-0-0~-0-0-0-0~-0-0-0-0~-0-0-0~-0~-0-0-0-0~-0-0-0---0-
C-0~-0-0-0--0-0-0--0~-0-0-0~-0-0-0-4~-4-4-4h5~-5-5-4~-2~-2-2-2h4~-4-4-4p2p0- x2
A-3~-3-3-3~-3-3-3--5~-5-5-5~-5-5-5-0~-0-0-0-0~-0-0-0~-0~-0-0-0-0~-0-0-0---0-
E-1~-1-1-1~-1-1-1--3~-3-3-3~-3-3-3------------------------------------------


e----------------------------------------------------------------------------------
C----0-0-0---0---0-0--0-0-0---0-------------0-0-0---0---0-0---0-0-0---0------------
G----0-0-0---0---0-0--0-0-0---0-------------0-0-0---0---0-0---0-0-0---0------------
C----0-0-0h2~--0~0-0--0-0-0h2~--2/4-4\2-0~--0-0-0h2~--0~0-0---0-0-0h2~--2/4 4\2-0~- x2
A-3~----------------3~--------------------0~----------------0~---------------------
E-1~----------------1~-------------------------------------------------------------


1
Have you heard?
      2
It's just like flyin'
 1
Above the world
   2
To break this silence
   1
To hold you lord
   2
To feel you breathin'
   1
A brief reward
    2
A timeless reason

e----------------------------------------------------------------------------------
C----0-0-0---0---0-0--0-0-0---0-------------0-0-0---0---0-0---0-0-0---0------------
G----0-0-0---0---0-0--0-0-0---0-------------0-0-0---0---0-0---0-0-0---0------------
C----0-0-0h2~--0~0-0--0-0-0h2~--2/4-4\2-0~--0-0-0h2~--0~0-0---0-0-0h2~--2/4 4\2-0~- x2
A-3~----------------3~--------------------0~----------------0~---------------------
E-1~----------------1~-------------------------------------------------------------
And it's alright if you walk away
And it's alright if you wanna stay

(The chorus is kinda tricky to play and sing)
e---------------------------------------------------------------------------
C-0~-0-0-0--0-0-0--0~-0-0-0~-0-0-0~-----------------------------------------
G-0~-0-0-0--0-0-0--0~-0-0-0~-0-0-0-0~-0-0-0-0~-0-0-0~-0~-0-0-0-0~-0-0-0---0-
C-0~-0-0-0--0-0-0--0~-0-0-0~-0-0-0-4~-4-4-4h5~-5-5-4~-2~-2-2-2h4~-4-4-4p2p0- x5
A-3~-3-3-3~-3-3-3--5~-5-5-5~-5-5-5-0~-0-0-0-0~-0-0-0~-0~-0-0-0-0~-0-0-0---0-
E-1~-1-1-1~-1-1-1--3~-3-3-3~-3-3-3------------------------------------------
And it rolls just like the ocean crashin' down on the rocks on the sound and it's
Just Like the water, just like the water
Down at your feet, shallow and deep and it's
Just like the water, just like the water
Breakin' apart and teeming with sharks and it's
Just like the water, just like the water
Now it's so blue, it's a slave to the moon and it's
Just like the water, oh just like the ocean

e----------------------------------------------------------------------------------
C----0-0-0---0---0-0--0-0-0---0-------------0-0-0---0---0-0---0-0-0---0------------
G----0-0-0---0---0-0--0-0-0---0-------------0-0-0---0---0-0---0-0-0---0------------
C----0-0-0h2~--0~0-0--0-0-0h2~--2/4-4\2-0~--0-0-0h2~--0~0-0---0-0-0h2~--2/4 4\2-0~- x2
A-3~----------------3~--------------------0~----------------0~---------------------
E-1~----------------1~-------------------------------------------------------------
Just like the ocean
Just like the ocean

e----------------------------------------------------------------------------------
C----0-0-0---0---0-0--0-0-0---0-------------0-0-0---0---0-0---0-0-0---0------------
G----0-0-0---0---0-0--0-0-0---0-------------0-0-0---0---0-0---0-0-0---0------------
C----0-0-0h2~--0~0-0--0-0-0h2~--2/4-4\2-0~--0-0-0h2~--0~0-0---0-0-0h2~--2/4 4\2-0~- x2
A-3~----------------3~--------------------0~----------------0~---------------------
E-1~----------------1~-------------------------------------------------------------

e---------------------------------------------------------------------------
C-0~-0-0-0--0-0-0--0~-0-0-0~-0-0-0~-----------------------------------------
G-0~-0-0-0--0-0-0--0~-0-0-0~-0-0-0-0~-0-0-0-0~-0-0-0~-0~-0-0-0-0~-0-0-0---0-
C-0~-0-0-0--0-0-0--0~-0-0-0~-0-0-0-4~-4-4-4h5~-5-5-4~-2~-2-2-2h4~-4-4-4p2p0- x2
A-3~-3-3-3~-3-3-3--5~-5-5-5~-5-5-5-0~-0-0-0-0~-0-0-0~-0~-0-0-0-0~-0-0-0---0-
E-1~-1-1-1~-1-1-1--3~-3-3-3~-3-3-3------------------------------------------


e----------------------------------------------------------------------------------
C----0-0-0---0---0-0--0-0-0---0-------------0-0-0---0---0-0---0-0-0---0------------
G----0-0-0---0---0-0--0-0-0---0-------------0-0-0---0---0-0---0-0-0---0------------
C----0-0-0h2~--0~0-0--0-0-0h2~--2/4-4\2-0~--0-0-0h2~--0~0-0---0-0-0h2~--2/4 4\2-0~- x2
A-3~----------------3~--------------------0~----------------0~---------------------
E-1~----------------1~-------------------------------------------------------------
And it's alright if you walk away
And it's alright if you wanna stay

e----------------------------------------------------------------------------------
C----0-0-0---0---0-0--0-0-0---0-------------0-0-0---0---0-0---0-0-0---0------------
G----0-0-0---0---0-0--0-0-0---0-------------0-0-0---0---0-0---0-0-0---0------------
C----0-0-0h2~--0~0-0--0-0-0h2~--2/4-4\2-0~--0-0-0h2~--0~0-0---0-0-0h2~--2/4 4\2-0~- x4
A-3~----------------3~--------------------0~----------------0~---------------------
E-1~----------------1~-------------------------------------------------------------

            
            
Suggest correction
Creating personal tab
Creating personal tab
You can edit any tab online and save it as your Personal.

You can edit, replace or remove any tab part or add personal notes – all changes will be seen only by you.

Personal tabs can be accessed anytime from any device, even offline.
Learn more »
Give kudos to tab author, rate the tab!
1 2 3 4 5
comments
print report bad tab
guest
You may want to rate the tab now too:
select rating
Wanna post a correction for this tab? Suggest correction