Oops, an error
Loading. Please wait.

Either Way Live tab

version 1
version 1

Whole song

  • It's not Exact, But is pretty Accurate.. the Strum... Show more
  • This is the version that Chris played on the Charl... Show more
14,356 views 402 this week
5 commentsread comments
1 2 3 4 5
x 17
add to favorites
×
Save as Personal and add changes to this tab that will be seen only by you. Learn more ›
×
You can save this tab as Personal to edit and correct it or add notes. All changes will be seen only by you. Learn more »
launch autoscroll
font size
0
reset
how to read this tab
guitar tuner
edit
Autoscroll
slow
fast
+/-
esc
set tempo
stop
About this tab version
It's not Exact, But is pretty Accurate.. the Strumming in the verse is how i do it to sing with it, and his pick is a little more complex this is simplified. Was this info helpful? Yes No
This is capo relative. I tried to get everything I could hear. Also this is a tabbing of his live version.
I hope this helps.

[Intro]

e|------------------|---------------------|
B|------------------|---------------------|
G|------------------|---------------------|
D|----0-------0-----|----0-------0----2/4~|
A|--0---0-2/4--4/2-0|--0---0-2/4--4/2-----|
D|0------0---0----0-|0------0---0----0----|


[Verse]

e|------------------|------------------|------------------|-------------------|
B|------------------|------------------|------------------|-------------------|
G|------------------|------------------|------------------|-------------------|
D|----0-------0-----|----0-------0-----|----0-------0-----|----0-------0------|
A|--0---0-2/4--4/2-0|--0---0-2/4--4/2-0|--0---0-2/4--4/2-0|--0---0-2/4--4/2-0-|
D|0------0---0----0-|0------0---0----0-|0------0---0----0-|0------0---0----0--|

e|-------------------------|------------------------|------------------|-------------------|
B|-------------------------|------------------------|------------------|-------------------|
G|-------------------------|------------------------|------------------|-------------------|
D|/5-5-5-5-5-5-5-5-5-5-5-5-|5-5-5-5-5-5h7-7-7-7-7-7-|----0-------0-----|----0-------0------|
A|/5-5-5-5-5-5-5-5-5-5-5-5-|5-5-5-5-5-5-5-5-5-5-5-5-|--0---0-2/4--4/2-0|--0---0-2/4--4/2-0-|
D|/5-----5-----5-----5-----|5-----5-----5-----5-----|0------0---0----0-|0------0---0----0--|

e|-------------------------|------------------------|--------------------------------------------|
B|-------------------------|------------------------|2-2-2-2-2-2h3-3-3-3-3-3-2-2-2-2-2-2---------|
G|-------------------------|------------------------|2-2-2-2-2-2h4-4-4-4-4-4-2-2-2-2-2-2---------|
D|/5-5-5-5-5-5-5-5-5-5-5-5-|5-5-5-5-5-5h7-7-7-7-7-7-|2-2-2-2-2-2-2-2-2-2-2-2-2-2-2-2-2-2-----0-2-|
A|/5-5-5-5-5-5-5-5-5-5-5-5-|5-5-5-5-5-5-5-5-5-5-5-5-|0-----0-----0-----0-----0-----0-----0-2-----|
D|/5-----5-----5-----5-----|5-----5-----5-----5-----|--------------------------------------------|


[Chorus]

e|2-2-2-2-2-2-2-2-2-2-2-2-|2-2-2-2-2-2-2-2-2-2-2-2-|------------------------|------------------------|
B|3-3-3-3-3-3-3-3-3-3-3-3-|3-3-3-3-3-3-3-3-3-3-3-3-|0-0-0-0-0-0-0-0-0-0-0-0-|0-0-0-0-0-0-0-0-0-0-0-0-|
G|2-2-2-2-2-2-2-2-2-2-2-2-|2-2-2-2-2-2-2-2-2-2-2-2-|0-0-0-0-0-0-0-0-0-0-0-0-|0-0-0-0-0-0-0-0-0-0-0-0-|
D|0-0-0-0-0-0-0-0-0-0-0-0-|0-0-0-0-0-0-0-0-0-0-0-0-|5-5-5-5-5-5-5-5-5-5-5-5-|5-5-5-5-5-5-5-5-5-5-5-5-|
A|0-----0-----0-----0-----|0-----0-----0-----0-----|5-----5-----5-----5-----|5-----5-----5-----5-----|
D|0-----0-----0-----0-----|0-----0-----0-----0-----|5-----5-----5-----5-----|5-----5-----5-----5-----|

e|0-0-0-0-0-0-0-0-0-0-0-0-|------------------------|-----------------------|
B|2-2-2-2-2-2-2-2-2-2-2-2-|0-0-0-0-0-0-0-0-0-0-0-0-|0-0-0-0-0-0-0-0-0-0~~~~|
G|2-2-2-2-2-2-2-2-2-2-2-2-|0-0-0-0-0-0-0-0-0-0-0-0-|0-0-0-0-0-0-0-0-0-0~~~~|
D|2-----2-----2-----2-----|5-5-5-5-5-5h7-7-7-7-7-7-|5-5-5-5-5-5-5-5-5-5~~~~|
A|0-----0-----0-----0-----|5-----5-----5-----5-----|5-----5-----5-----5~~~~|
D|------------------------|5-----5-----5-----5-----|5-----5-----5-----5~~~~|


Repeat Intro
Repeat Verse
Repeat Chorus 

[Interlude]

e|-----------------|-------------------|------------------|-------------------|
B|-----------------|-------------------|------------------|-------------------|
G|-----------------|-------------------|------------------|-------------------|
D|---0-------0-----|----0-------0----2/|4~~~4-------0-----|----0-------0------|
A|-0---0-2/4--4/2-0|--0---0-2/4--4/2---|--0---0-2/4--4/2-0|--0---0-2/4--4/2-0-|
D|0-----0---0----0-|0------0---0----0--|0------0---0----0-|0------0---0----0--|

e|-------------------------|------------------------|------------------------|--------------------|
B|-------------------------|------------------------|2-2-2-2-2-2h3-3-3-3-3-3p|2-2-2-2-2-2---------|
G|-------------------------|------------------------|2-2-2-2-2-2h4-4-4-4-4-4p|2-2-2-2-2-2---------|
D|/5-5-5-5-5-5-5-5-5h7-7-7-|7-7-7p5-5-5-5-5-5-5-5-5-|2-2-2-2-2-2-2-2-2-2-2-2-|2-2-2-2-2-2-----0-2-|
A|/5-5-5-5-5-5-5-5-5-5-5-5-|5-5-5-5-5-5-5-5-5-5-5-5-|0-----0-----0-----0-----|0-----0-----0-2-----|
D|/5-----5-----5-----5-----|5-----5-----5-----5-----|------------------------|--------------------|


Repeat Chorus


[Outro]
                       RIT   
e|------------------|------------------|-2~~~~--------------------------------------|
B|------------------|------------------|-3~~~~--------------------------------------|
G|------------------|------------------|-2~~~~--------------------------------------|
D|----0-------0-----|----0-------0-----|-0~~~~--------------------------------------|
A|--0---0-2/4--4/2-0|--0---0-2/4--4/2-0|-0~~~~--------------------------------------|
D|0------0---0----0-|0------0---0----0-|-0~~~~--------------------------------------|


************************************

| x   Dead note
| g   Grace note
| (n) Ghost note
| h   Hammer-on
| p   Pull-off
| r   Release
| >   Accented note
| t   Tapping
| b   Bend
| br  Bend release
| pb  Pre-bend
| pbr Pre-bend release
| /   Slide up
| \   Slide down
| ~   Vibrato
| s   Slap
| P   Pop
| PM  Palm mute
| TR  Trill
| N   Tremolo
| RIT Ritando (slow down)
************************************
Suggest correction
Creating personal tab
Creating personal tab
You can edit any tab online and save it as your Personal.

You can edit, replace or remove any tab part or add personal notes – all changes will be seen only by you.

Personal tabs can be accessed anytime from any device, even offline.
Learn more »
comments
print report bad tab
5 comments total. Showing first comments.
0 reply
bradygerba1 10 May 16, 2017 04:06 AM

Great tab! one minor suggestion, Try putting the capo on the 2nd fret instead of the third. Sounds closer to the actual song in my opinion.

0 reply
wacraig21 72 May 20, 2017 04:12 PM

Chris sings it live with the Capo on 4 and has recorded it with the capo on 2. It's just a matter of matching it to your voice.

I prefer playing the intro like this:

e|---------------------|------------------------|
B|---------------------|------------------------|
G|---------------------|------------------------|
D|----0----------------|----0---------------2/4~|
A|--0---0-2/4-4/5-5/4-0|--0---0-2/4-4/5-5/4-----|
D|0--------------------|0-----------------------|

0 reply
Johner357 10 3 days ago

strum pattern?

guest
You may want to rate the tab now too:
select rating
Wanna post a correction for this tab? Suggest correction