Oops, an error
Loading. Please wait.

Either Way Acoustic tab

version 2
version 2

Whole song

  • It's not Exact, But is pretty Accurate.. the Strum... Show more
  • This is the version that Chris played on the Charl... Show more
2,533 views 189 this week
3 commentsread comments
1 2 3 4 5
x 10
add to favorites
×
Save as Personal and add changes to this tab that will be seen only by you. Learn more ›
×
You can save this tab as Personal to edit and correct it or add notes. All changes will be seen only by you. Learn more »
launch autoscroll
font size
0
reset
how to read this tab
guitar tuner
edit
Autoscroll
slow
fast
+/-
esc
set tempo
stop
About this tab version
This is the version that Chris played on the Charlie Rose show that you can easily find on YouTube. I think this tab is a bit more complete than some of the others I've seen posted. Was this info helpful? Yes No
[Intro]
D|-----------------------------------------------------------------|
B|-----------------------------------------------------------------|
G|-----------------------------------------------------------------|
D|--------0----------0------------------0----------0----------2\4--|
A|-----0-----0--2/4-----4\2--0-------0-----0--2/4-----4\2--0-------|
D|--0-----------------------------0--------------------------------|

                We pass in the hall,            on our way to separate rooms
                The only time we ever talk,     is when the monthly bills are due
D|-----------------------------------------------------------------|
B|-----------------------------------------------------------------|
G|-----------------------------------------------------------------|
D|--------0----------0------------------0----------0----------2\4--|
A|-----0-----0--2/4-----4\2--0-------0-----0--2/4-----4\2--0-------|
D|--0-----------------------------0--------------------------------|

        We go to work, we go to church, we fake the perfect life
E|-------------------------------------------------------------------|
B|-------------------------------------------------------------------|
G|-------------------------------------------------------------------|
D|--1s5--5-----5-5-----5-----5-5-----5-----5-5-----5------5-5-----5--|
A|--1s5--5-----5-5-----5-----5-5-----5-----5-5-----5------5-5-----5--|
D|--1s5-----5-------5-----5-------5-----5-------5-----5--------5-----|

D|------------------------------------------------------------|
B|------------------------------------------------------------|
G|------------------------------------------------------------|
D|--------0----------0------------------0----------0-------0--|
A|-----0-----0--2/4-----4\2--0-------0-----0--2/4-----4\2-----|
D|--0-----------------------------0---------------------------|

            I'm past the point of givin' damn, and all my tears are cried
E|---------------------------------------------------------------------------------------------|
B|------------------------------------------------------------------0h2--2--2--2-2h3-3-3-3p2---|
G|------------------------------------------------------------------0h2--2--2--2-2-2-2-2-2-2---|
D|--1s5--5-----5-5-----5-----5-5-----5-----5-5-----5-----5-5-----5--0h2--2--2--2-2h4-4-4-4p2---|
A|--1s5--5-----5-5-----5-----5-5-----5-----5-5-----5-----5-5-----5-----------------------------|
D|--1s5-----5-------5-----5-------5-----5-------5-----5-------5--------------------------------|

    We can just go on like this, say the word we'll call it quits
E|--------------0h2-2--0--0--0-0--0--2-----------3----------------------------------|
B|--------------3---3--3--3--3-3--3--3--3--3-----3----------------------------------|
G|--------------0h2-2--2--2--0-0-h2--2--------2-------------------------------------|
D|--------0--2--0---0--0--0---------------------------1s5--5-----5-5-----5-----5-5--|
A|--0--2----------------------------------------------1s5--5-----5-5-----5-----5-5--|
D|----------------------------------------------------1s5-----5------5------5-------|

        Baby you can go or you can stay, I won't love you either way
E|-------------------0h2--2------------------------------------------|
B|-------------------0h2--2-2---2------------------------------------|
G|-------------------0h2--2-2---2------------------------------------|
D|-----5-----5-5--------------0----1s5--5-5-5--5-5--5-5--5--5--5--5--|
A|-----5-----5-5-------------------1s5--5-5h7--7-7--7p5--5--5--5--5--|
D|--5-----5-------5----------------1s5--5-5-5--5-5--5-5--5--5--5--5--|

D|-----------------------------------------------------------------|
B|-----------------------------------------------------------------|
G|-----------------------------------------------------------------|
D|--------0----------0------------------0----------0----------2\4--|
A|-----0-----0--2/4-----4\2--0-------0-----0--2/4-----4\2--0-------|
D|--0-----------------------------0--------------------------------|

D|-----------------------------------------------------------------|
B|-----------------------------------------------------------------|
G|-----------------------------------------------------------------|
D|--------0----------0------------------0----------0----------2\4--|
A|-----0-----0--2/4-----4\2--0-------0-----0--2/4-----4\2--0-------|
D|--0-----------------------------0--------------------------------|

                It's been so long since I felt, anything inside these walls
                You can't hate when you can't hurt, when you don't feel at all
D|-----------------------------------------------------------------|
B|-----------------------------------------------------------------|
G|-----------------------------------------------------------------|
D|--------0----------0------------------0----------0----------2\4--|
A|-----0-----0--2/4-----4\2--0-------0-----0--2/4-----4\2--0-------|
D|--0-----------------------------0--------------------------------|

        I used to cry and stay up nights and wonder what went wrong
E|-------------------------------------------------------------------|
B|-------------------------------------------------------------------|
G|-------------------------------------------------------------------|
D|--1s5--5-----5-5-----5-----5-5-----5-----5-5-----5------5-5-----5--|
A|--1s5--5-----5-5-----5-----5-5-----5-----5-5-----5------5-5-----5--|
D|--1s5-----5-------5-----5-------5-----5-------5-----5--------5-----|

D|------------------------------------------------------------|
B|------------------------------------------------------------|
G|------------------------------------------------------------|
D|--------0----------0------------------0----------0-------0--|
A|-----0-----0--2/4-----4\2--0-------0-----0--2/4-----4\2-----|
D|--0-----------------------------0---------------------------|

                And it's been hard but hearts can only do that for so long
E|---------------------------------------------------------------------------------------------|
B|------------------------------------------------------------------0h2--2--2--2-2h3-3-3-3p2---|
G|------------------------------------------------------------------0h2--2--2--2-2-2-2-2-2-2---|
D|--1s5--5-----5-5-----5-----5-5-----5-----5-5-----5-----5-5-----5--0h2--2--2--2-2h4-4-4-4p2---|
A|--1s5--5-----5-5-----5-----5-5-----5-----5-5-----5-----5-5-----5-----------------------------|
D|--1s5-----5-------5-----5-------5-----5-------5-----5-------5--------------------------------|

    We can just go on like this, say the word we'll call it quits
E|--------------0h2-2--0--0--0-0--0--2-----------3----------------------------------|
B|--------------3---3--3--3--3-3--3--3--3--3-----3----------------------------------|
G|--------------0h2-2--2--2--0-0-h2--2--------2-------------------------------------|
D|--------0--2--0---0--0--0---------------------------1s5--5-----5-5-----5-----5-5--|
A|--0--2----------------------------------------------1s5--5-----5-5-----5-----5-5--|
D|----------------------------------------------------1s5-----5-------5------5------|

        Baby you can go or you can stay,        but I won't love you either way
E|-------------------0h2--2------------------------------------------|
B|-------------------0h2--2-2---2------------------------------------|
G|-------------------0h2--2-2---2------------------------------------|
D|-----5-----5-5--------------0----1s5--5-5-5--5-5--5-5--5--5--5--5--|
A|-----5-----5-5-------------------1s5--5-5h7--7-7--7p5--5--5--5--5--|
D|--5-----5-------5----------------1s5--5-5-5--5-5--5-5--5--5--5--5--|

D|-----------------------------------------------------------------|
B|-----------------------------------------------------------------|
G|-----------------------------------------------------------------|
D|--------0----------0------------------0----------0----------2\4--|
A|-----0-----0--2/4-----4\2--0-------0-----0--2/4-----4\2--0-------|
D|--0-----------------------------0--------------------------------|

D|------------------------------------------------------------|
B|------------------------------------------------------------|
G|------------------------------------------------------------|
D|--------0----------0------------------0----------0-------0--|
A|-----0-----0--2/4-----4\2--0-------0-----0--2/4-----4\2-----|
D|--0-----------------------------0---------------------------|

[Outro]
E|-------------------------------------------------------2--2--2-2h3-3-3-3p2--2--|
B|-------------------------------------------------------2--2--2-2-2-2-2-2-2--2--|
G|-------------------------------------------------------2--2--2-2h4-4-4-4p2--2--|
D|--1s5--5-5-5--------------------5-------------------5--------------------------|
A|--1s5--5-5-5--5h7-7-7-7-7-7p5-5---5-5h7-7-7-7-7-7p5-5--------------------------|
D|--1s5--5-5-5--5-5-5-5-5-5-5-5-------5-5-5-5-5-5-5-5-5--------------------------|

    We can just go on like this, say the word we'll call it quits
E|--------------0h2-2--0--0--0-0--0--2-----------3----------------------------------|
B|--------------3---3--3--3--3-3--3--3--3--3-----3----------------------------------|
G|--------------0h2-2--2--2--0-0-h2--2--------2-------------------------------------|
D|--------0--2--0---0--0--0---------------------------1s5--5-----5-5-----5-----5-5--|
A|--0--2----------------------------------------------1s5--5-----5-5-----5-----5-5--|
D|----------------------------------------------------1s5-----5-----5------5--------|

        Baby you can go or you can stay,        but I won't love you either way
E|-------------------0h2--2------------------------------------------|
B|-------------------0h2--2-2---2------------------------------------|
G|-------------------0h2--2-2---2------------------------------------|
D|-----5-----5-5--------------0----1s5--5-5-5--5-5--5-5--5--5--5--5--|
A|-----5-----5-5-------------------1s5--5-5h7--7-7--7p5--5--5--5--5--|
D|--5-----5-------5----------------1s5--5-5-5--5-5--5-5--5--5--5--5--|


************************************

| h  Hammer-on
| /  Slide up
| \  Slide down
| p  Pull-off

************************************

            
            
Suggest correction
Creating personal tab
Creating personal tab
You can edit any tab online and save it as your Personal.

You can edit, replace or remove any tab part or add personal notes – all changes will be seen only by you.

Personal tabs can be accessed anytime from any device, even offline.
Learn more »
comments
print report bad tab
3 comments total.
0 reply
DwightGarrels 10 Jun 28, 2017 02:34 PM

What key or chords for 2nd Capo? I'm fairly new to playing

0 reply
risseeuw57 33 Jul 06, 2017 03:12 PM

Good job man, i was going to sit down and tab this out from the YouTube video you're referring to but you already did it!

guest
You may want to rate the tab now too:
select rating
Wanna post a correction for this tab? Suggest correction