Oops, an error
Loading. Please wait.

Outlaw State Of Mind tab

1,669 views 84 this week
1 commentread comment
1 2 3 4 5
x 3
add to favorites
×
Save as Personal and add changes to this tab that will be seen only by you. Learn more ›
×
You can save this tab as Personal to edit and correct it or add notes. All changes will be seen only by you. Learn more »
launch autoscroll
font size
0
reset
how to read this tab
guitar tuner
edit
Autoscroll
slow
fast
+/-
esc
set tempo
stop
About this tab version
The other versions had the wrong tuning, and their version of the intro was wrong. This is correct. Was this info helpful? Yes No
--Chris Stapelton
--Outlaw State of Mind (Intro and Chords)
--DADGAD TUNING 

**Its key to the song that this intro is correct
  and as far as i know the other tabs were wrong.
  
--You're Welcome.


[Song Chords] 

      D    G    A    C
D|----0----0----2----0----|
A|----0----5----0----3----|
G|----2----0----2----0----|
D|----0----x----2----2----|
A|----0----5----0----3----|
D|----0----5--------------|

[Intro]

D|-------------------------------------|-------------------------------------|
A|-------------------------------------|-------------------------------------|
G|-------------------------------------|-------------------------------------|
D|------3-----3--------5------5--------|-8-----8-----8------10----10---------|
A|--------------3--------5------5------|---8-----8------------10-------------|
D|----3-----3-----3/5-------5-----5/8--|-----8-----8---8/10-----10---0-3b-0--|

D|-------------------------------------|-------------------------------------|
A|-------------------------------------|-------------------------------------|
G|-------------------------------------|-------------------------------------|
D|----0-----0--------------0-----------|----0-----0--------------0-----------|
A|-------3b-----------0h3----3--0------|-------3b-----------0h3----3--0------|
D|-0----------3b--0----------------3b--|--0---------3b--0----------------3b--|

D|------------------------------------|------------------------------------0-|
A|------------------------------------|------------------------------------0-|
G|------------------------------------|------------------------------------2-|
D|---0-----0--------------0-----------|---0-----0--------------0-----------0-|
A|------3b-----------0h3----3--0------|------3b-----------0h3----3--0------0-|
D|-0---------3b--0----------------3b--|-0---------3b--0----------------3b--0-|


[Verse]
D|---------0----0---------0-----0-----|------------------------------------0-|
A|---------0----0---------0-----0-----|------------------------------------0-|
G|---------2----2---------2-----2-----|------------------------------------2-|
D|----0--------------0----------------|---0-----0--------------0-----------0-|
A|----0--------------0----------------|------3b-----------0h3----3--0------0-|
D|----0--------------0----------------|-0---------3b--0----------------3b--0-|

      Cut my teeth on daddy's old LGO...

D|---------0----0---------0-----0-----|--------------------------------------|
A|---------0----0---------0-----0-----|--------------------------------------|
G|---------2----2---------2-----2-----|--------------------------------------|
D|----0--------------0----------------|---0-----0--------------0-----------0-|
A|----0--------------0----------------|------3b-----------0h3----3--0--------|
D|----0--------------0----------------|-0---------3b--0----------------3b----|

      Lost my mind somewhere in New Mexico...

D|------------------------------------|--------------------------------------|
A|------------------------------------|--------------------------------------|
G|------------------------------------|--------------------------------------|
D|------3-----3--------5------5-------|---0------0-------------0----------0--|
A|---------3-----3--------5-----------|------3b-----------0h3-----3--0-------|
D|----3------------3/5------5----0-3B-|-0----------3b--0---------------3b----|

      JW put a snake on my back....

D|------------------------------------|--------------------------------------|
A|------------------------------------|--------------------------------------|
G|------------------------------------|--------------------------------------|
D|------3-----3--------5------5-------|-8-----8-----8------10-----10-10-10-10|
A|---------3-----3--------5-----5-----|---8-----8------------10---10-10-10-10|
D|----3------------3/5------5-----5/8-|-----8-----8---8/10-----10-10-10-10-10|

                  I Keep a red bar on my siddddeeeeeee......

[Chorus]
D|------0-----0-----0-----------------|------2-----2-----0-------------------|
A|------5-----5-----0-----------------|------x-----x-----0-------------------|
G|------0-----0-----2-----------------|------2-----2-----2-------------------|
D|------------------0--------0-----0--|---2-----2--------0---------0------0--|
A|---x-----x-----0-----0--3b-----3b---|---0-----0-----0-----0--3b-----3b-----|
D|---5-----5-----0--------------------|---------------0----------------------|

D|------0-----0-----0-----------------|-------2-----2----0-------------------|
A|------5-----5-----0-----------------|-------x-----x----3-------------------|
G|------0-----0-----2-----------------|-------2-----2----0-------------------|
D|--------------------------0-----0---|----2-----2-------2-------------------|
A|----x----x-----0-----0--3b---3b-----|----0-----0-------3-------------------|
D|----5----5-----0--------------------|--------------------------------------|

[Bridge]
D|-------------------------------------|-------------------------------------|
A|-------------------------------------|-------------------------------------|
G|-------------------------------------|-------------------------------------|
D|------3-----3--------5------5--------|-8-----8-----8------10----10---------|
A|--------------3--------5------5------|---8-----8------------10-------------|
D|----3-----3-----3/5-------5-----5/8--|-----8-----8---8/10-----10----0-3b-0-|

[Verse]
[Chorus]
[Bridge repeats until end of song]




************************************

| h   Hammer-on
| >   Accented note
| b   Bend

************************************
Suggest correction
Creating personal tab
Creating personal tab
You can edit any tab online and save it as your Personal.

You can edit, replace or remove any tab part or add personal notes – all changes will be seen only by you.

Personal tabs can be accessed anytime from any device, even offline.
Learn more »
Give kudos to tab author, rate the tab!
1 2 3 4 5
comments
print report bad tab
1 comment total.
0 reply
dan_treptow40 44 Mar 12, 2017 06:18 PM

Spot on! Awesome

guest
You may want to rate the tab now too:
select rating
Wanna post a correction for this tab? Suggest correction