Oops, an error
Loading. Please wait.

Parachute solo tab

version 1
version 1

Solo

7,096 views 42 this week
2 commentsread comments
1 2 3 4 5
x 7
add to favorites
×
Save as Personal and add changes to this tab that will be seen only by you. Learn more ›
×
You can save this tab as Personal to edit and correct it or add notes. All changes will be seen only by you. Learn more »
launch autoscroll
font size
0
reset
how to read this tab
guitar tuner
edit
Autoscroll
slow
fast
+/-
esc
set tempo
stop
[Intro]

D#|---------------------------------------------------------------------------|
A#|---------------------------------------------------------------------------|
F#|----7-7h9-----9/12/9-7-----------------------------------------------------|
C#|-7/9------------------7h9-------------5-5h7-----7/9--7/5-0-----------------|X2
G#|----------------------------------5h7----------------------5h7-------------|
D#|---------------------------------------------------------------------------|


{Solo}

D#|---------------------------------------------------------------------------------|
A#|-------------------------------------7-------------------------------------------|
F#|------------------------------5-7/9----9--7----5-7/9--7-0------------------------|
C#|-7/9--7/5-0-5h7---7-5-5h7---7-----------------------------5h7-7-5h7-7-5h7-7-5h7--|X2
G#|---------------------------------------------------------------------------------|
D#|---------------------------------------------------------------------------------|


***********************************

h~hammer on
/~slide

************************************

            
            
Suggest correction
Creating personal tab
Creating personal tab
You can edit any tab online and save it as your Personal.

You can edit, replace or remove any tab part or add personal notes – all changes will be seen only by you.

Personal tabs can be accessed anytime from any device, even offline.
Learn more »
comments
print report bad tab
2 comments total.
0 reply
dylcarta 10 Jan 27, 2017 03:00 PM

I know Chris plays it closer to the top of the neck than this, but the notes still seem correct and sound good. my only problem is I dont believe the 5h7--7-5--5h7 at the beginning of the solo is right. i feel like it should be played on the G# string and not the C#, It just doesnt sound right when I play along with the song. It could just be wanting to hear something else though. Either way everything else sounds great and its become the way I play it.

guest
You may want to rate the tab now too:
select rating
Wanna post a correction for this tab? Suggest correction