Oops, an error
Loading. Please wait.
We have Chord Pro version of Tennessee Whiskey.
It's the closest thing you can get to the original song and it has interactive parts. Check out the tab »
×

Tennessee Whiskey chords

version 2
version 2

Whole song

Interactive

Video

34,206 views 294 this week
3 commentsread comments
1 2 3 4 5
x 33
add to favorites
×
Save as Personal and add changes to this tab that will be seen only by you. Learn more ›
×
You can save this tab as Personal to edit and correct it or add notes. All changes will be seen only by you. Learn more »
launch autoscroll
font size
0
reset
transpose
0
reset
simplify chords
display chords
guitar tuner
edit
Autoscroll
slow
fast
+/-
esc
set tempo
stop
Author
Difficulty
intermediate
Strumming
There is no strumming pattern for this song yet. and get +5 IQ
[Intro]

  A Asus4 A               Bm               Bm           A  Asus4 A
E|------------|---------------------|----------------|--------------|
B|------------|---------------------|----------------|--------------|
G|------------|---------------------|----------------|--------------|
D|------------|---------------------|----------------|--------------|
A|-----0-2/4~-|-2/4\2-0-2/4\2~------|-2/4-2/4-4\2----|-2/4\2--------|
E|-0-2--------|----------------2-0-2|----------------|--------5-5~--|


I personally let that last note ring and throw in some 
hard mutes before I hit the first A chord in the verse.


[Verse]

 A                               Bm
Used to spend my nights out in a bar room
D                E               A   A Asus4 A  <--(h-p)   
 Liquor was the only love I’ve known

   E      A
E|--------0--------                             E|---0---0---0----0-------
B|--------2--------                             B|---3/5-5\3-3--2-2-------
G|--------2--------                             G|---4/6-6\4-4--2-2-------
D|--------2--------           OR                D|----------------2-------
A|-----0-----------     if you want to          A|----------------0-------
E|-0h2-------------    do the slide bit--->     E|------------------------

 A                                       Bm
But you rescued me from reachin’ for the bottom
                D        E             A   A Asus4 A  <--(h-p)
And brought me back from being too far gone
 
   E        A
E|----------0--|
B|----------2--|
G|----------2--|
D|----------2--|
A|------0------|
E|-0h2---------|
 You're as


[Chorus]

            A    A Asus4 A                Bm
You’re as smooth          as Tennessee whiskey
            D  E                 A    A Asus4 A
You’re as sweeeeet as strawberry wine
  E        A Asus4 A            Bm
You’re as warm as a glass of brandy
                    D             E           A     A Asus4 A
And honey, I stay stoned on your love all the time

   E     A
E|------------|
B|------------|
G|------------|
D|------------|
A|-----0-2h4--|
E|-0-2--------|


[Verse]

 A                                        Bm
I’ve looked for love in all the same old places
D            E                             A  A Asus4 A  
  Found the bottom of a bottle was always dry

   E      A
E|--------0--------|                             E|---0---0---0----0-------|
B|--------2--------|                             B|---3/5-5\3-3--2-2-------|
G|--------2--------|                             G|---4/6-6\4-4--2-2-------|
D|--------2--------|           OR                D|----------------2-------|
A|-----0-----------|     if you want to          A|----------------0-------|
E|-0h2-------------|    do the slide bit--->     E|------------------------|

 A                                           Bm
But when you poured out your heart I didn’t waste it
                D                 E              A     
‘Cause there’s nothing like your love to get me high, yeah


[Chorus]

E              A    A Asus4 A                Bm
  You’re as smooth            as Tennessee whiskey
            D  E                 A    A Asus4 A
You’re as sweeeeet as strawberry wine
  E        A Asus4 A            Bm
You’re as warm as a glass of brandy
                    D             E           A     A Asus4 A
And honey, I stay stoned on your love all the time


[Instrumental/Solo] (Can play the following chords or the solo tab)

E  A-Asus4-A    Bm   Bm   A   A-Asus4-A
E  A-Asus4-A    Bm   Bm   A   A-Asus4-A


e|----------b-|-----------------|-----------------|-----------|
B|------10-12-|-------14--14\12-|-------14-14\12--|-12-12-10--|
G|-9-11-------|-----------------|-----------------|-----------|
D|------------|-12\14-----14\12-|-12\14-14-14\12--|-12-12-11--|
A|------------|-----------------|-----------------|-----------|
E|------------|-----------------|-----------------|-----------|


e|-----------------------------|-b--------|-b--b---------|
B|------------------------10~~-|-12-12-10-|-13-13--10-10-|
G|----------------9-11-11------|----------|--------------|
D|-----7---7-9\11--------------|----------|--------------|
A|-7-9---9---------------------|----------|--------------|
E|-----------------------------|----------|--------------|


e|----------------------------|----------|
B|----------------------------|----------|
G|-9h11-9-11------------------|----------|
D|-9h11------11\9-7---------7-|-9-10-9\7-|
A|------------------9---7-9---|----------|
E|----------------------------|----------|


e|------------------------------------------------|
B|---------------------------------10----10\------|
G|----------------------------9-11----11----------|
D|-----7---7-------7-9-7-9/11---------------------|
A|-7-9---9---7---7--------------------------------|
E|------------------------------------------------|
 

[Chorus]

E              A    A Asus4 A                Bm
  You’re as smooth            as Tennessee whiskey
            D  E                 A    A Asus4 A
You’re as sweeeeet as strawberry wine
  E        A Asus4 A            Bm
You’re as warm as a glass of brandy
                    D             E           A     A Asus4 A
And honey, I stay stoned on your love all the time


[Chorus]

E              A    A Asus4 A                Bm
  You’re as smooth            as Tennessee whiskey
         Bm                                A      A Asus4 A
as Tennessee whiskey        as Tennessee whiskey
E              A    A Asus4 A                Bm
  You’re as smooth            as Tennessee whiskey
         Bm                                A~~~
as Tennessee whiskey        as Tennessee whiskey


E|-----5--|
B|---2----|
G|-2------|
D|--------|
A|--------|
E|--------|



************************************

| h  Hammer-on
| b  Bend
| /  Slide up
| \  Slide down
| ~  Vibrato

************************************

            
            
Suggest correction
Creating personal tab
Creating personal tab
You can edit any tab online and save it as your Personal.

You can edit, replace or remove any tab part or add personal notes – all changes will be seen only by you.

Personal tabs can be accessed anytime from any device, even offline.
Learn more »
comments
print report bad tab
3 comments total.
+1 reply
dubbluv28 10 Nov 24, 2015 04:01 PM

This is a 2 chord song, aside from the walking bass line.
A and Bbm is all you need. I've seen him play it live as well as listened to the previous version of the song.

0 reply
ianorr1 10 May 03, 2017 06:12 AM

Excellent job - thanks, and quite an improvement over version 1. You have the E chord in what seems the right places. I've also seen this song played live where two chord positions (A and Bm) disguise all the chords you have used to make it appear like a two chord song. I guess what counts is what sounds best to each listener or guitarist.

0 reply
rob.summerill 10 Aug 05, 2017 11:50 PM

I agree with all above. Do as Chris did. take another persons song and make it your own. This is a great version, but I will take from it what I want along with all other renditions and do it my way..

guest
You may want to rate the tab now too:
select rating
Wanna post a correction for this tab? Suggest correction