Oops, an error
Loading. Please wait.

The Right Ones Chords

412 views 108 this week
no commentswrite comment
1 2 3 4 5
x 3
add to favorites
launch autoscroll
font size
0
reset
transpose
0
reset
display chords
guitar tuner
Autoscroll
slow
fast
+/-
esc
set tempo
stop
Help us to improve Ultimate-Guitar.com Take our survey!
×
Author
Difficulty
Capo
novice
3rd fret
Based on this performance: 

https://www.youtube.com/watch?v=NW6doPesnoU


[Intro]

The intro pattern is also used for the Verses.

F* C
F* C
F* C
G*

     F*      C                 G*
e|---1-1-1-1-----------|    |--3-3-3-3-----------|
B|---1-1-1-1-1-1-1-1---|    |--3-3-3-3-3-3-3-3---|
G|---0-2-2-0-0-0-0-0---| x3 |--0-0-0-0-2-4-2-0---| x1
D|---3-3-3-3-2-2-2-2---|    |--0-0-0-0-0-0-0-0---|
A|---3-3-3-3-3-3-3-3---|    |--0-0-0-0-0-0-0-0---|
E|---1-1-1-1-----------|    |--3-3-3-3-3-3-3-3---|


[Verse]

F*          C
Put me on a chain
F*              C
You put me in a box
F*              C
You put me in a cage
        G
And you start throwin’ rocks

F*            C
I offer up my heart
F*            C
I offer up my soul
F*               C
You wanted me to dance
       G               F   C
I just wanna rock n roll


[Chorus]

Am           G                    F       C
I don’t know what I’m supposed to say sometimes
         Am        G
Where to draw that line
           F  C
You oughta know
Am     G            F           C
Nobody cares if the words don’t rhyme
Am             G
If you say the right ones


[Interlude] 
     F*      C                 G*
e|---1-1-1-1-----------|    |--3-3-3-3-----------|
B|---1-1-1-1-1-1-1-1---|    |--3-3-3-3-3-3-3-3---|
G|---0-2-2-0-0-0-0-0---| x3 |--0-0-0-0-2-4-2-0---| x1
D|---3-3-3-3-2-2-2-2---|    |--0-0-0-0-0-0-0-0---|
A|---3-3-3-3-3-3-3-3---|    |--0-0-0-0-0-0-0-0---|
E|---1-1-1-1-----------|    |--3-3-3-3-3-3-3-3---|


[Verse]

F*              C
I waited in the rain
F*                 C
Pulled out all the stops
F*                C
Walked out on the stage
      G
And I played until we dropped

F*               C
I tore the place apart
F*           C
Left ‘em all alone
F*             C
I wanna take a chance
         G                F   C
You just wanna take it slow


[Chorus]

Am           G                    F       C
I don’t know what I’m supposed to say sometimes
         Am        G
Where to draw that line
           F  C
You oughta know
Am     G            F           C
Nobody cares if the words don’t rhyme
Am             G
If you say the right ones


[Bridge]

G
I’m downtown

With a down crowd
F                                   G
Drinkin’ my best not to think about you

Just a fool’s hope at the end of my rope
F                                 G        F   C
Sitting at the bar, praying for a miracle


[Chorus]

Am           G                    F       C
I don’t know what I’m supposed to say sometimes
         Am        G
Where to draw that line
           F  C
You oughta know
Am     G            F           C
Nobody cares if the words don’t rhyme
Am             G         F   C
If you say the right ones

Am           G                    F       C
I don’t know what I’m supposed to say sometimes
         Am        G
Where to draw that line
           F  C
You oughta know
Am     G            F           C
Nobody cares if the words don’t rhyme
Am             G
If you say the right ones


[Outro]

     F*      C                 G*
e|---1-1-1-1-----------|    |--3-3-3-3-----------|
B|---1-1-1-1-1-1-1-1---|    |--3-3-3-3-3-3-3-3---|
G|---0-2-2-0-0-0-0-0---| x3 |--0-0-0-0-2-4-2-0---| x1
D|---3-3-3-3-2-2-2-2---|    |--0-0-0-0-0-0-0-0---|
A|---3-3-3-3-3-3-3-3---|    |--0-0-0-0-0-0-0-0---|
E|---1-1-1-1-----------|    |--3-3-3-3-3-3-3-3---|


Cheers!
Suggest correction
Give kudos to tab author, rate the tab!
1 2 3 4 5
comments
print report bad tab
guest
You may want to rate the tab now too:
select rating
Wanna post a correction for this tab? Suggest correction