Oops, an error
Loading. Please wait.

Whiskey And You chords

version 2
version 2

Whole song

19,103 views 147 this week
no commentswrite comment
1 2 3 4 5
x 36
add to favorites
×
Save as Personal and add changes to this tab that will be seen only by you. Learn more ›
×
You can save this tab as Personal to edit and correct it or add notes. All changes will be seen only by you. Learn more »
launch autoscroll
font size
0
reset
transpose
0
reset
simplify chords
display chords
guitar tuner
edit
Autoscroll
slow
fast
+/-
esc
set tempo
stop
About this tab version
This one is more correct. Was this info helpful? Yes No
Strumming
There is no strumming pattern for this song yet. and get +5 IQ
[Intro]

e|-------------------------------------------------------|
B|-------------------------------------------------------|
G|-------------------------------------------------------|
D|-2\4--4--4\5--5--5\7--7--7/5--5------------------------|   X2
A|-------------------------------------------------------|
D|-0---0-0-----0-0-----0-0-----0-0-----------------------|


[Verse]
                          
e|-------------------------------------------------------|
B|-------------------------------------------------------|
G|-------------------------------------------------------|   D = this progression  
D|-2\4--4--4\5--5--5\7--7--7/5--5------------------------|
A|-------------------------------------------------------|
D|-0---0-0-----0-0-----0-0-----0-0-----------------------|

       Bm           Bm7
e|------2------------2-----------------------------------|
B|------3------------2-----------------------------------|
G|------4------------4-----------------------------------|
D|------4------------4-----------------------------------|   X2
A|------2------------2-----------------------------------|
D|------x------------x-----------------------------------|

                       G
e|---------------------5---------------------------------| Play this in place of G**
B|---------------------8---------------------------------|
G|-----------7---------7---------------------------------|
D|---------------5-----5---------------------------------|
A|-------5-------------5---------------------------------|
D|--/5-----------------5---------------------------------|



All D's are the progression from the intro unless otherwise stated.


[Verse]

              D      
 There’s a bottle… on the dresser by your ring
          Bm    Bm7          Bm                  Bm7
And it’s empty… so right now I don’t feel a thing
           D                                               Bm    A       G**
I’ll be hurtin’… when I wake up on the floor, and I’ll be over… it… by noon
               D (Actual D chord) A         D (progression) x2
That’s the difference, between whiskey and you

Come tomorrow… I can walk in any store
             Bm    Bm7        Bm             Bm7
It ain’t a problem… they’ll always sell me more
                D                                                    Bm         A       G**
But you’re forgiveness… that’s something I can’t buy, there ain’t a thing… that I… can do
               D                  A         D (Actual D Chord)
That’s the difference, between whiskey and you


[Chorus]

           A                 G
One’s the devil… one keeps driving me insane
             A         G
At times I wonder… if they ain’t both the same
              D (Progression)                                       Bm    A             G**
But one’s a liar… that helps to hide me from my pain , and one’s a long… gone… bitter truth
               D                  A         D (progression) x2
That’s the difference, between whiskey and you


[Verse]

              D
I’ve got a problem… but it ain’t like what you think
Bm                    Bm7               Bm                  Bm7
I drink because I’m lonesome… and I’m lonesome ‘cause I drink
   D                                                  Bm       A         G**            
If I don’t break down… and bring it on myself, it’ll hit… out of… the blue
               D                      A         D ( actual chord)
That’s the difference, between the whiskey and you


[Chorus]

           A                 G
One’s the devil… one keeps driving me insane
             A         G
At times I wonder… if they ain’t both the same
              D (Progression)                                       Bm    A             G**
But one’s a liar… that helps to hide me from my pain , and one’s a long… gone… bitter truth
               D                  A         Bm  A   G (Strum G as tabbed above)
That’s the difference, between whiskey and you
                    D                  A         D (progression)
Oh that’s the difference, between whiskey and you



All the transitions are kind of weird just listen to the song especially on the second line of each verse.
Once again all D's are the progression from the intro unless otherwise stated.

There is one fill that he does in avery verse right after the Bm A G. It's hard to tell exactly what he does
but I think it is this. Might need to play with it a little to sound right.


e|-----------------------------------------------------|
B|-----------------------------------------------------|
G|--------5-4------------------------------------------|
D|----5h7----------------------------------------------|   
A|-----------------------------------------------------|
E|-----------------------------------------------------|



************************************

| x  Dead note
| h  Hammer-on
| /  Slide up
| \  Slide down

************************************
Suggest correction
Creating personal tab
Creating personal tab
You can edit any tab online and save it as your Personal.

You can edit, replace or remove any tab part or add personal notes – all changes will be seen only by you.

Personal tabs can be accessed anytime from any device, even offline.
Learn more »
There is a new version of this tab from 1 day ago which you may like more. Go check it out:
comments
print report bad tab
guest
You may want to rate the tab now too:
select rating
Wanna post a correction for this tab? Suggest correction