Oops, an error
Loading. Please wait.

Whiskey And You Acoustic tab

version 2
version 2

Whole song

1,753 views 30 this week
no commentswrite comment
1 2 3 4 5
x 3
add to favorites
×
Save as Personal and add changes to this tab that will be seen only by you. Learn more ›
×
You can save this tab as Personal to edit and correct it or add notes. All changes will be seen only by you. Learn more »
launch autoscroll
font size
0
reset
how to read this tab
guitar tuner
edit
Autoscroll
slow
fast
+/-
esc
set tempo
stop
[Intro]
E|----------------------------------------------------------|
B|----------------------------------------------------------|
G|----------------------------------------------------------|
D|--2h4-----4-----4h5-----5-----5/7-----7-----7/5-----5-----|
A|--0-------------------------------------------------------|
D|--0----0-----0-------0-----0-------0-----0-------0-----0--|

E|----------------------------------------------------------|
B|----------------------------------------------------------|
G|----------------------------------------------------------|
D|--2h4-----4-----4h5-----5-----5/7-----7-----7/5-----5-----|
A|--0-------------------------------------------------------|
D|--0----0-----0-------0-----0-------0-----0-------0-----0--|

[Verse 1]
There's a bottle, on the dresser by your ring
E|----------------------------------------------------------|
B|----------------------------------------------------------|
G|----------------------------------------------------------|
D|--2h4-----4-----4h5-----5-----5/7-----7-----7/5-----5-----|
A|--0-------------------------------------------------------|
D|--0----0-----0-------0-----0-------0-----0-------0-----0--|

And it's empty, so right now I dont feel a thing
E|-------------------------------------------------|
B|--------3-----2-----2-----2h3-----3-----2-----2--|
G|--------4-----4-----4-----4-------4-----4-----4--|
D|-----4-------------------------------------------|
A|--2--------2-----2-----2-------2-----2-----2-----|
D|-------------------------------------------------|

And I'll be hurtin', when I wake up on the floor
E|----------------------------------------------------------|
B|----------------------------------------------------------|
G|----------------------------------------------------------|
D|--2h4-----4-----4h5-----5-----5/7-----7-----7/5-----5-----|
A|--0-------------------------------------------------------|
D|--0----0-----0-------0-----0-------0-----0-------0-----0--|

But I'll be over it by noon
E|------------------------------------------------------|
B|--------3-----------3---------------------------------|
G|--------4-----------4---------------------------------|
D|-----4-----4-----4-----4---------------10\9-----9-----|
A|--2-----------0----------------5--5/7--------5-----5--|
D|--------------------------2/5-------------5-----------|

That's the difference, between whiskey and you
E|-----------------|
B|--------3-----2--|
G|-----2--2--2--2--|
D|--0-----------2--|
A|-----------------|
D|--0--------------|

E|----------------------------------------------------------|
B|----------------------------------------------------------|
G|----------------------------------------------------------|
D|--2h4-----4-----4h5-----5-----5/7-----7-----7/5-----5-----|
A|--0-------------------------------------------------------|
D|--0----0-----0-------0-----0-------0-----0-------0-----0--|

Come tomorrow, I can walk in any store
E|----------------------------------------------------------|
B|----------------------------------------------------------|
G|----------------------------------------------------------|
D|--2h4-----4-----4h5-----5-----5/7-----7-----7/5-----5-----|
A|--0-------------------------------------------------------|
D|--0----0-----0-------0-----0-------0-----0-------0-----0--|

It ain't a problem, they'll always sell me more
E|-------------------------------------------------|
B|--------3-----2-----2-----2h3-----3-----2-----2--|
G|--------4-----4-----4-----4-------4-----4-----4--|
D|-----4-------------------------------------------|
A|--2--------2-----2-----2-------2-----2-----2-----|
D|-------------------------------------------------|

But your forgiveness, well that's something I can't buy
E|----------------------------------------------------------|
B|----------------------------------------------------------|
G|----------------------------------------------------------|
D|--2h4-----4-----4h5-----5-----5/7-----7-----7/5-----5-----|
A|--0-------------------------------------------------------|
D|--0----0-----0-------0-----0-------0-----0-------0-----0--|

There ain't a thing that I can do
E|------------------------------------------------------|
B|--------3-----------3---------------------------------|
G|--------4-----------4---------------------------------|
D|-----4-----4-----4-----4---------------10\9-----9-----|
A|--2-----------0----------------5--5/7--------5-----5--|
D|--------------------------2/5-------------5-----------|

That's the difference, between whiskey and you
E|----------------------------------|
B|--------3-----2--2-------------2--|
G|-----2--2--2--2--3-------------3--|
D|--0-----------2--2----------0--2--|
A|-----------------------0h2--------|
D|--0-----------------0-------------|

[Chorus]
Ones the devil, and one keeps driving me insane
E|---------------------3--3--3--3--|
B|--2--2h3--3--3p2--2--3--3--3--3--|
G|--2--2----2--2----2--------------|
D|--2--2----2--2----2--------------|
A|---------------------------------|
D|---------------------------------|

At times I wonder, if they ain't both the same
E|---------------------3--3--3--3--|
B|--2--2h3--3--3p2--2--3--3--3--3--|
G|--2--2----2--2----2--------------|
D|--2--2----2--2----2--------------|
A|---------------------------------|
D|---------------------------------|

But one's a liar, that helps to hide me from my pain
E|----------------------------------------------------------|
B|----------------------------------------------------------|
G|----------------------------------------------------------|
D|--2h4-----4-----4h5-----5-----5/7-----7-----7/5-----5-----|
A|--0-------------------------------------------------------|
D|--0----0-----0-------0-----0-------0-----0-------0-----0--|

And one's a long gone bit of truth
E|------------------------------------------------------|
B|--------3-----------3---------------------------------|
G|--------4-----------4---------------------------------|
D|-----4-----4-----4-----4---------------10\9-----9-----|
A|--2-----------0----------------5--5/7--------5-----5--|
D|--------------------------2/5-------------5-----------|

That's the difference, between whiskey and you
E|-----------------|
B|--------3-----2--|
G|-----2--2--2--2--|
D|--0-----------2--|
A|-----------------|
D|--0--------------|

E|----------------------------------------------------------|
B|----------------------------------------------------------|
G|----------------------------------------------------------|
D|--2h4-----4-----4h5-----5-----5/7-----7-----7/5-----5-----|
A|--0-------------------------------------------------------|
D|--0----0-----0-------0-----0-------0-----0-------0-----0--|

E|----------------------------------------------------------|
B|----------------------------------------------------------|
G|----------------------------------------------------------|
D|--2h4-----4-----4h5-----5-----5/7-----7-----7/5-----5-----|
A|--0-------------------------------------------------------|
D|--0----0-----0-------0-----0-------0-----0-------0-----0--|

[Verse 2]
I've got a problem, but it ain't like what you think
E|----------------------------------------------------------|
B|----------------------------------------------------------|
G|----------------------------------------------------------|
D|--2h4-----4-----4h5-----5-----5/7-----7-----7/5-----5-----|
A|--0-------------------------------------------------------|
D|--0----0-----0-------0-----0-------0-----0-------0-----0--|

I drink because I'm lonesome, and I'm lonesome cause I drink
E|-------------------------------------------------|
B|--------3-----2-----2-----2h3-----3-----2-----2--|
G|--------4-----4-----4-----4-------4-----4-----4--|
D|-----4-------------------------------------------|
A|--2--------2-----2-----2-------2-----2-----2-----|
D|-------------------------------------------------|

But if I don't break down, and bring it on myself
E|----------------------------------------------------------|
B|----------------------------------------------------------|
G|----------------------------------------------------------|
D|--2h4-----4-----4h5-----5-----5/7-----7-----7/5-----5-----|
A|--0-------------------------------------------------------|
D|--0----0-----0-------0-----0-------0-----0-------0-----0--|

It'll hit out of the blue
E|------------------------------------------------------|
B|--------3-----------3---------------------------------|
G|--------4-----------4---------------------------------|
D|-----4-----4-----4-----4---------------10\9-----9-----|
A|--2-----------0----------------5--5/7--------5-----5--|
D|--------------------------2/5-------------5-----------|

That's the difference, between whiskey and you
E|----------------------------------|
B|--------3-----2--2-------------2--|
G|-----2--2--2--2--3-------------3--|
D|--0-----------2--2----------0--2--|
A|-----------------------0h2--------|
D|--0-----------------0-------------|

[Chorus]
Ones the devil, and one keeps driving me insane
E|---------------------3--3--3--3--|
B|--2--2h3--3--3p2--2--3--3--3--3--|
G|--2--2----2--2----2--------------|
D|--2--2----2--2----2--------------|
A|---------------------------------|
D|---------------------------------|

At times I wonder, if they ain't both the same
E|---------------------3--3--3--3--|
B|--2--2h3--3--3p2--2--3--3--3--3--|
G|--2--2----2--2----2--------------|
D|--2--2----2--2----2--------------|
A|---------------------------------|
D|---------------------------------|

But one's a liar, that helps to hide me from my pain
E|----------------------------------------------------------|
B|----------------------------------------------------------|
G|----------------------------------------------------------|
D|--2h4-----4-----4h5-----5-----5/7-----7-----7/5-----5-----|
A|--0-------------------------------------------------------|
D|--0----0-----0-------0-----0-------0-----0-------0-----0--|

And one's a long gone bit of truth
E|------------------------------------------------------|
B|--------3-----------3---------------------------------|
G|--------4-----------4---------------------------------|
D|-----4-----4-----4-----4---------------10\9-----9-----|
A|--2-----------0----------------5--5/7--------5-----5--|
D|--------------------------2/5-------------5-----------|

That's the difference, between whiskey and you
E|-----------------|
B|--------3-----2--|
G|-----2--2--2--2--|
D|--0-----------2--|
A|-----------------|
D|--0--------------|

[Outro]
E|--------------------3--|
B|--------------------3--|
G|--------4--------4--0--|
D|-----4--------4-----0--|
A|--2--------0-----------|
E|-----------------------|

Ahhh, That's the difference, between whiskey and you
E|----------------------------------------2--|
B|--------3-----2--2----------------------3--|
G|-----2--2--2--2--3--------------------0h2--|
D|--0-----------2--2--------0-------0--------|
A|-----------------------0-----0h2-----------|
D|--0-----------------0----------------------|

[Chords]
E|------------3---------3----------|
B|--3----2----2----2----3----------|
G|--4----4----3----2---------------|
D|--4----4---------2-------5----9--|
A|--2----2-----------------5----5--|
D|-------------------------5----5--|

(The G5/D is also played as Dsus4/A, depending on which version of the song Chris plays)
E|---3-------------------------------|
B|---3-------------------------------|
G|-----------------------------------|
D|--------------------------5--------|
A|--------------------------5--------|
D|--------------------------5--------|



************************************

| h  Hammer-on
| /  Slide up
| \  Slide down
| p  Pull-off

************************************

            
            
Suggest correction
Creating personal tab
Creating personal tab
You can edit any tab online and save it as your Personal.

You can edit, replace or remove any tab part or add personal notes – all changes will be seen only by you.

Personal tabs can be accessed anytime from any device, even offline.
Learn more »
Give kudos to tab author, rate the tab!
1 2 3 4 5
comments
print report bad tab
guest
You may want to rate the tab now too:
select rating
Wanna post a correction for this tab? Suggest correction