Oops, an error
Loading. Please wait.

Amor Verdadero tab

23 views 1 this week
no commentswrite comment
1 2 3 4 5
3 more votes to show rating
add to favorites
×
Save as Personal and add changes to this tab that will be seen only by you. Learn more ›
×
You can save this tab as Personal to edit and correct it or add notes. All changes will be seen only by you. Learn more »
launch autoscroll
font size
0
reset
how to read this tab
guitar tuner
edit
Autoscroll
slow
fast
+/-
esc
set tempo
stop
Esta canción me gusta mucho
y más por que me identifico con lo que dice.
Se la quiero dedicar a una chava que es asi de :O OMG!!
Lo mejor para mi
que la super adoro y la super quiero
por que me encanta estar a su lado...
Cristy!!!
Esta rola va para ti weeeee! :D :D :D jojo (L)

PD: Igual y muchas cosas
que dice la canción ni quedan xD pero no hay petz
con esta rola me acuerdo de ti *.* :D (L)


Afinación: Estándar.
No. de guitarras: 2

Intro: (Guitarra 1 y 2 juntas)

(Guitarra 1)
E|--------------------------------------|
B|---4~--2~---2/4-------4~--2~----------|
G|--------------------------------------|
D|--------------------------------------|
A|---4--------2/4-------4---------4-2---|
E|------------------------------2-------|

(Guitarra 2) (F#)
E|------------2-------------------------|
B|-------2~---2-------------2~----------|
G|------------3-------------------------|
D|------------4-------------------------|
A|---4--------4---------4---------4-2---|
E|------------2-----------------2-------|

Enseguida ambas guitarras
rasguean estos acordes: F# D#m B C# (2x)


Verso 1: (Guitarra 1 y 2 juntas)

F#               D#m
  Mirándote a los ojos me doy cuenta
     B               C#
  que la suerte esta conmigo
F#               D#m
  estando a tu lado me haces ver
     B           C#
  que el amor es pan comido
F#              D#m           B
  cada ves que yo te beso siento que mi corazón
           C#                  F#
  esta en pleno paraíso y tus labios mas dulces
      D#m             B        C#
  que cualquier caramelo.


Coro: (Guitarra 1)

F#                 C#                 D#m
  Y si te pierdo yo le entrego mi alma al diablo
              B                      C#
  solo por tenerte un día mas a mi lado
F#                     C#            D#m
  mi amor tu eres mi razon eres mi tesoro
       B                             C#
  y quiero pasar mi vida entera a tu lado
        B            A#m     G#m              B       C#
  a tu lado oh yeh yeh quiero pasarla junto a ti

B A#m G#m B C# (1x)


Coro: (Guitarra 2)

     (F#)     (C#)      (D#m)
E|-------6-----6-6----------9-----9-9----|
B|------7--7--7-7----------7--7--7-7-----|
G|----6------6-6---------6------6-6------|
D|---------------------------------------|
A|---------------------------------------|
E|---------------------------------------|
     Y si te pierdo yo le entrego mi alma al diablo...


     (B)                (C#)
E|-------4-----4-4----------9-----9-9----|
B|------7--7--7-7----------7--7--7-------|
G|----6------6-6---------6------6-6------|
D|---------------------------------------|
A|---------------------------------------|
E|---------------------------------------|
...solo por tenerte un día mas a mi lado...


     (F#)     (C#)      (D#m)
E|-------6-----6-6----------9-----9-9----|
B|------7--7--7-7----------7--7--7-7-----|
G|----6------6-6---------6------6-6------|
D|---------------------------------------|
A|---------------------------------------|
E|---------------------------------------|
      Mi amor tu eres mi razón eres mi tesoro...


     (B)                (C#)
E|-------4-----4-4----------9-----9-9----|Al terminar este
B|------7--7--7-7----------7--7--7-------|ultimo arpegio
G|----6------6-6---------6------6-6------|la guitarra 2 se
D|---------------------------------------|incorpora tocando
A|---------------------------------------|lo que falta del coro
E|---------------------------------------|con acordes.
...y quiero pasar mi vida entera a tu lado

      B            A#m     G#m              B       C#
a tu lado oh yeh yeh quiero pasarla junto a ti.


(Ambas guitarras tocan
este puente para comenzar
con el siguiente verso):    B A#m G#m B C# [1x]


Verso 2: (Guitarra 1 y 2 juntas)

F#                 D#m
  El día en que llegaste yo aprendi
      B                C#
  a usar mi corazón completo
F#                     D#m
  tu me enseñaste que no
              B                   C#
  hay nada mejor que sentir amor verdadero
F#                    D#m          B
  cada ves que yo te beso siento que
                                     C#
  estoy en un mundo donde todo es perfecto
F#                       D#m            B
  y tenerte tan cerca es lo que mas necesito
     C# <-----------(Un solo rasgueo)
  yo te necesito..


Coro: (Guitarra 1)

F#                 C#                 D#m
  Y si te pierdo yo le entrego mi alma al diablo
              B                      C#
  solo por tenerte un día mas a mi lado
F#                     C#            D#m
  mi amor tu eres mi razon eres mi tesoro
       B                             C#
  y quiero pasar mi vida entera a tu lado
        B            A#m     G#m              B       C#
  a tu lado oh yeh yeh quiero pasarla junto a ti
         B           C#
  y no te vayas no te alejes
         D#m          G#m            B         C#       Bm
  tu no sueltes ni un segundo de mi mano...


Coro: (Guitarra 2)

     (F#)     (C#)      (D#m)
E|-------6-----6-6----------9-----9-9----|
B|------7--7--7-7----------7--7--7-7-----|
G|----6------6-6---------6------6-6------|
D|---------------------------------------|
A|---------------------------------------|
E|---------------------------------------|
     Y si te pierdo yo le entrego mi alma al diablo...


     (B)                (C#)
E|-------4-----4-4----------9-----9-9----|
B|------7--7--7-7----------7--7--7-------|
G|----6------6-6---------6------6-6------|
D|---------------------------------------|
A|---------------------------------------|
E|---------------------------------------|
 ...solo por tenerte un día mas a mi lado...


     (F#)     (C#)      (D#m)
E|-------6-----6-6----------9-----9-9----|
B|------7--7--7-7----------7--7--7-7-----|
G|----6------6-6---------6------6-6------|
D|---------------------------------------|
A|---------------------------------------|
E|---------------------------------------|
      Mi amor tu eres mi razón eres mi tesoro...


     (B)                (C#)
E|-------4-----4-4----------9-----9-9----|Al terminar este
B|------7--7--7-7----------7--7--7-------|ultimo arpegio
G|----6------6-6---------6------6-6------|la guitarra 2 se
D|---------------------------------------|incorpora tocando
A|---------------------------------------|lo que falta del coro
E|---------------------------------------|con acordes.
 ...y quiero pasar mi vida entera a tu lado

      B            A#m     G#m              B       C#
 a tu lado oh yeh yeh quiero pasarla junto a ti.
          B           C#
 y no te vayas no te alejes
         D#m          G#m            B         C#       Bm
 tu no sueltes ni un segundo de mi mano...


Break con Bm: (Guitarra 1 y 2 juntas)

Guitarra 1: Comienza en minuto 2:30 hasta el minuto 2:51
con break en Bm

Guitarra 2: Entra en el minuto 2:34
E|-----------------|
B|-----------------|
G|--7/9-9-9-9/7----|
D|--7--------------|
A|-----------------|
E|-----------------|

La guitarra 2 entra con este solo en el minuto 2:40
E|------------------------------------------------------------|
B|------------------------------------------------------------|
G|--------------------7/9-9-9-9/7------2/4/2------------------|
D|-----4-7-4--------4-7---------------4-------------4---------|
A|--9-7-----7-9--9-7---------------9-7------7-9--9-7-9-9-9-9--|
E|------------------------------------------------------------|

Y después del break volvemos al coro.


Coro: (Guitarra 1)

F#                 C#                 D#m
  Y si te pierdo yo le entrego mi alma al diablo
              B                      C#
  solo por tenerte un día mas a mi lado
F#                     C#            D#m
  mi amor tu eres mi razon eres mi tesoro
       B                             C#
  y quiero pasar mi vida entera a tu lado
       B     C#    B   C#  B   C#
  a tu lado oh oh  oh  oh...


Coro: (Guitarra 2)

     (F#)     (C#)      (D#m)
E|-------6-----6-6----------9-----9-9----|
B|------7--7--7-7----------7--7--7-7-----|
G|----6------6-6---------6------6-6------|
D|---------------------------------------|
A|---------------------------------------|
E|---------------------------------------|
     Y si te pierdo yo le entrego mi alma al diablo...


     (B)                (C#)
E|-------4-----4-4----------9-----9-9----|
B|------7--7--7-7----------7--7--7-------|
G|----6------6-6---------6------6-6------|
D|---------------------------------------|
A|---------------------------------------|
E|---------------------------------------|
 ...solo por tenerte un día mas a mi lado...


     (F#)     (C#)      (D#m)
E|-------6-----6-6----------9-----9-9----|
B|------7--7--7-7----------7--7--7-7-----|
G|----6------6-6---------6------6-6------|
D|---------------------------------------|
A|---------------------------------------|
E|---------------------------------------|
      Mi amor tu eres mi razón eres mi tesoro...


     (B)                (C#)
E|-------4-----4-4----------9-----9-9----|Al terminar este
B|------7--7--7-7----------7--7--7-------|ultimo arpegio
G|----6------6-6---------6------6-6------|la guitarra 2 se
D|---------------------------------------|incorpora rasgueando
A|---------------------------------------|los acordes del
E|---------------------------------------|último renglón del coro.
 ...y quiero pasar mi vida entera a tu lado
      B     C#    B   C#  B   C#
 a tu lado oh oh  oh  oh...


Final: (Guitarra 2)
Mientras guitarra uno continua con el rasgueo final del coro
guitarra 2 hace un ending así:

      (C#)              (F#)
E|--0-0-0-0-6/7-7-7-6-6--2--|
B|--6-6-6-6-6/7-7-7-6-6--2--|
G|--6-6-6-6-6/7-7-7-6-6--3--|
D|--6-6-6-6-0-0-0-0-0-0--4--|
A|--4-4-4-4--------------4--|
E|--0-0-0-0--------------2--|

Fin.


Ojalá y les haya gustado esta tablatura
ya que tarde mucho haciéndola
por que soy muy perfeccionista xD
Cualquier duda o comentario
favor de avisarme a mi mail: happy_blink_182@
Gracias!
:D
Suggest correction
Creating personal tab
Creating personal tab
You can edit any tab online and save it as your Personal.

You can edit, replace or remove any tab part or add personal notes – all changes will be seen only by you.

Personal tabs can be accessed anytime from any device, even offline.
Learn more »
Give kudos to tab author, rate the tab!
1 2 3 4 5
comments
print report bad tab
guest
Wanna post a correction for this tab? Suggest correction