Oops, an error
Loading. Please wait.

Dime tab

49 views 1 this week
no commentswrite comment
1 2 3 4 5
3 more votes to show rating
add to favorites
×
Save as Personal and add changes to this tab that will be seen only by you. Learn more ›
×
You can save this tab as Personal to edit and correct it or add notes. All changes will be seen only by you. Learn more »
launch autoscroll
font size
0
reset
how to read this tab
guitar tuner
edit
Autoscroll
slow
fast
+/-
esc
set tempo
stop
Hola les kiero mandar una cancion k x lo regular me facina
y ps como no estaba la tab decidi mandarla ya k yo la necesitaba
y ps a lo mejor ustedes tambn
espero k les guste kualkier duda queja
sugerencia mentada de ma..... invitar a salir xD
me escriben tambn si kieren aprender a tokar o a saber leer
tablatura ayudo ^^
fercho101_@


Intro:

E|-----------------------0-2---0h2---------------------------------
B|-----2----3---5------------------3--------0---------0-------2----
G|-------2----4---6----2-----2-------2--------------2-------2------
D|---2---------------0---0-0--------------2---2---2-------2--------
A|-0--------2---4--------------------------------------------------
E|--------------------------------------0-------2-------4----------

E|---------------0----------------------------------------|
B|-----0-2---0h2----3---2---0h2-----2--------0------------|
G|--------------------2---2-----2-----2-------------------|
D|---2-----2--------0-------------0--------2---2---2---4--|
A|-0---0-0------------------------------------------------|
E|---------------------------------------0-------2---4----|


Que bella k estas no lo tomes como un complemento
ahora dime como has estado mujer

E|---------------0-------------------------------------------------|
B|-----0-2---0h2----------5--4--3--------5---5--------0------------|
G|----------------------6-6--5--4------4-4-----4-------------------|
D|---2-----2----------6---6--5--4----4---4-4--------2---2---2---4--|
A|-0---0-0----------4-----4--3--2--2-----2-------------------------|
E|------------------------------------------------0-------2---2----|

Me han contado k te han visto acompañada
de alguien k kisa valga la pena

E|-------------------------------------2---4-0-----------------|
B|-------2---0----------5---5--------3---3----------0----------|
G|-----2-------2------6-------4----2---------------------------|
D|---2-----2--------6-----6------0----------------2---2---4----|
A|-0--------------4--------------------------------------------|
E|----------------------------------------------0-------2---2--|

Pero no mi vidha no te mientas xk
tu lo sabes nadie te ama como yo

E|----------------2---4--------2---4-0-----------------|
B|-------2---0----3---5------3---3----------0----------|
G|-----2-------2--4---6----2---------------------------|
D|---2-----2------4---6--0----------------2---2---4----|
A|-0--------------2---4--------------------------------|
E|--------------------------------------0-------2---2--|

E|-----2-------------------0---0-0--0-0-0--|
B|-------3------2----------0---0-0--0-0-0--|
G|---2------------2------1-1---1-1--1-1-1--|
D|-0----------2--------2---2---2-2--2-2-2--|
A|----------0--------------2---2-2--2-2-2--|
E|-------------------0-----0---0-0--0-0-0--|


D A Bm A
D A Bm A

        D          A               Bm         A
Dime si el el te conoce tanto como yo eso lo dudo
          D                A                 Bm             A
Y dime si el te hace derretirte como lo hago yo deja de mentirte
          D                A                     Bm              A
Y dime si el te besa como yo y te cuida cuando estas enferma mentira
         D            A           Bm            A
Dime si el te esta limpiando lagrimas k caen x mi


   A                           C#m
Y yo he estado bn aunk sepas k miento
               Bm                 E
cuando te digo eso pero k mas puedo decir
         A                                C#m
Y si te digo adios me duele ay dios k me duele
                   Bm        E                       A
Xk yo kiero recuperarte y estar a tu lado de nuevo

(un solo rasgueo)
     Bm          C#m            D
Pero no mi vidha no lo escondas xk
       E          D      E    D E
tu lo sabes nadie te ama como yo

D A Bm A
D A Bm A

        D          A               Bm         A
Dime si el el te conoce tanto como yo eso lo dudo
          D                A                 Bm             A
Y dime si el te hace derretirte como lo hago yo deja de mentirte
          D                A                     Bm              A
Y dime si el te besa como yo y te cuida cuando estas enferma mentira
         D            A           Bm            A
Dime si el te esta limpiando lagrimas k caen x mi
D      A        Bm
       K caen x mi
            A         D
Te esta limpiando lagrimas
A        Bm A
K caen x mi

E|-----2---------------------------0--|
B|-------3------2------------------2--|
G|---2------------2------4p2----2--2--|
D|-0----------2--------4------2----2--|
A|----------0--------2-------------0--|
E|------------------------------------|

            
            
Suggest correction
Creating personal tab
Creating personal tab
You can edit any tab online and save it as your Personal.

You can edit, replace or remove any tab part or add personal notes – all changes will be seen only by you.

Personal tabs can be accessed anytime from any device, even offline.
Learn more »
Give kudos to tab author, rate the tab!
1 2 3 4 5
comments
print report bad tab
guest
Wanna post a correction for this tab? Suggest correction