Oops, an error
Loading. Please wait.

Adagio Bwv 1001 tab

977 views 3 this week
no commentswrite comment
1 2 3 4 5
3 more votes to show rating
add to favorites
×
Save as Personal and add changes to this tab that will be seen only by you. Learn more ›
×
You can save this tab as Personal to edit and correct it or add notes. All changes will be seen only by you. Learn more »
launch autoscroll
font size
0
reset
how to read this tab
guitar tuner
edit
Autoscroll
slow
fast
+/-
esc
set tempo
stop
Author
Difficulty
Title: Violin Sonata # 1, BWV 1001 - Adagio
SubTitle: Arranged for Mandolin *Tabbed By: Al Warren*
Artist: Chris Thile
Album: Sonatas and Partitas
Music: Johann Sebastian Bach
Tempo = 112
Mandolin

Legend
L - tied note
x - dead note
h - hammer on/pull off
b - bend
s - slide
~ - vibrato
g - ghost note
> - accentuated note
t - trill
M - palm mute
. - staccato
P - popping (bass)
S - slapping (bass)
+ - tapping
W - wide vibrato
< - fade in
w - whammy bar
= - tremolo picking
v - brush up
^ - brush down
V - pick stroke up
n - pick stroke down


E |--3L----------------------------------------------3-----1--------------------|
A |--1L----------------------------------------------1-----------6-----5-----3--|
D |--0--------------------------------------------------------------------------|
G |-----------------------------------------------------------------------------|


--------------------------------------------------------------------------------|
---1-----0-----1h----3----------------------------------------------------------|
------------------5--5-----------------------4L----------------------4-----2----|
---------------------2----------------------------------------------------------|


---------------------------------------|
-------------------------0-----3--1----|
-0-----2-----4-----5-------------------|
---------------------------------------|


--2-----------------------------------------------------------------------------|
--1L----------------------1-----5h-3--1-----3-----3t----------------1--3--5-----|
--0-----------------------------------------------------------------------------|
--------------------------------------------------------------------------------|


------------------3-------------------------------------------------------------|
------0-----------1-----------------------------------0h-1h-3--5--6-------------|
------------------------------------------------5.------------------------------|
--------------------------------------------------------------------------------|


----------3-------------------------|
----------1-------------------------|
------------------------------------|
------------------------------------|


--------------------------------------------------------------------------6-----|
--1-----------0-----------6-----------5-----------5-----------------------5L----|
--0-----------------------------------------------------------------------0-----|
--------------------------------------------------------------------------------|


------2-----------3-------------------------------------------------------------|
------5-----------1L----------1-----6-----5-----3-----1-----3--0--1-------------|
------------------1-----------------------------------------------------4-----5-|
--------------------------------------------------------------------------------|


------------------------------------|
----------------5--3--1--3t-1--3----|
----0-------------------------------|
------------------------------------|


--3-----2-----5-----------3-----2--5--3-------------|
--5-----------------3-----1--5--------------1-------|
--0-----------------0-----------------------3-------|
----------------------------------------------------|


--------------6-----5h-3--1t----------------0-----1-----------------------------|
--0-----------------------------------------------------------------------0-----|
--2-----------------------------------------------------------------------0-----|
--------------------------------------------------------------------------------|


------------------1-----------------------------------------------6-----------3-|
------------------------------5-----------6-------------------------------------|
------------------5-------------------------------------------------------------|
--------------------------------------------------------------------------------|


----------3-------------------------|
----------1-----------6-------------|
------------------------------------|
------------------------------------|


--------------5--------------------5h-3--1--0h----------------3-----0-----------|
--6-----4--------------------------------------5--------5-----------------5-----|
--0-----------------------0-----------------------0-----------------------------|
--------------------------------------------------------------------------------|


------------3L------|
4-----0-------------|
--------------------|
--------------------|


--3-----------3-----------1-----------3h----0-----1-----------------------------|
--------------------------------------------------------------------------0-----|
--------------------------------------------------------------------------------|
--------------------------------------------------------------------------------|


------------------------------------------------------------------0L------------|
------------------0-----------------------------------8-------------------------|
------------------------------0-----------5-------------------------------------|
--------------------------------------------------------------------------------|


----------0--1.-3h-5h-6--0h-1h-3----|
------------------------------------|
------------------------------------|
------------------------------------|


--------------------------------------------------------------------------------|
--5-----------------------4-----------------------------------------------------|
--2-----------------------------------------------5-----3-----------5h-2--3-----|
--------------------------------------------------------------------------------|


------------------------------------------------0-----1-----3h-0----------------|
------5-----------5--------4--2h----4h----5-----------------------4t------------|
------------------2-------------------------------------------------------------|
--------------------------------------------------------------------------------|


------------------------------------|
----------4h----------5-------------|
------------------------------------|
------------------------------------|


--------------------------------------------------------------------------------|
--5L----------------------------------------------5-----5-----3-----1-----0h-1h-|
--------------------------------------------------------------------------------|
--------------------------------------------------------------------------------|


--------------------------------------------------------------------------------|
0h-1--1t----0h-1--3-----------6h----5-----6-----------------------9-------------|
------------------4-----------------------------------------------8-------------|
------------------2-------------------------------------------------------------|


------------------------------------|
------------------------------------|
------------------------------------|
------------------------------------|


--------------------------------------------------3-----1-----------------------|
--0h----1-----------------------------------5-----------------6h----5-----3-----|
--------------------------------5-----8-----------------------------------------|
--------------------------------------------------------------------------------|


------------------3-------------------------------------------------------------|
1-----0h----------1-------------------------------------------------------------|
---------5--4--5--5-----------------------4-----------------------3-------------|
--------------------------------------------------------------------------------|


------------------------------------|
------------------------------------|
----5h-6--5-----3-----1-----3h-0----|
------------------------------------|


--------------------------------------------------------------------------------|
--2-----------5-----------5-----------3-----------6-----------5-----------5-----|
--------------------------------------------------------------------------------|
--------------------------------------------------------------------------------|


---------------------------------------------------------------------------------|
------6-----------6-----5--------------------------------------------------------|
------------------------------------8h----10----12----13----15h17-18-------------|
------------------------------------------------------------------------------15-|


----------------------4-------------|
------------------------------------|
----------0-------------------------|
------------------------------------|


--------4-----3-----------------------------------------------4-----3h-1--------|
--------------------------4-----------------------------3-----------------6-----|
--1-----------------------------------1--5h-8--11-------------------------------|
--------------------------------------------------1-----------------------------|


--------------------|
------5t----5h-6----|
--------------------|
--------------------|


--------------------------------------------------------------------------------|
--6-----------------------------------------------------------------------------|
--------------------------------------------------------0-----3-----6-----9-----|
--------------------------------------------------4h----------------------------|


--------------------------------------------------------------------------------|
5-----8-----11-10-10----------------11h10-9--10---------------------------------|
------------------10L---------10----------------12h13-9h-10-------------13------|
------------------------------------------------------------11h---12------------|


------------------------------------|
------------------------------------|
----12----------10t9h-10------------|
------------------------------------|


--------------------------------------------------------------------------------|
--------------------------------------------------------------------------------|
--10----------------8h-6--5-----3-----1-----0-----------------------------------|
--------------------------------------------------5h----4-----5-----0-----5-----|


------------------------------------1-------------------------------------------|
------------3-----------------3-----------2L----------------------2-----0h------|
------5-----------0-----------------------------------------------------------5-|
8-------------------------------------------------------------------------------|


------------------------------------|
----0-----2-----3-----5-----8--6----|
------------------------------------|
------------------------------------|


--------------------------------------------------------------------------------|
--8L----------------------------------------------8-----11h---10----8-----10h---|
--9-----------------------------------------------------------------------------|
--------------------------------------------------------------------------------|


--------------------------------------------------------------------------------|
8-----6-----5-----6-----------------------------3-----5h-6h-8--10-11------------|
--------------------------------------------------------------------------------|
--------------------------------------------------------------------------------|


------------------------------------|
------------------------------------|
----------13------------------------|
------------------------------------|


--------------------------------------------------------------------------------|
--------------------------11----------10----------10----------------------6-----|
--13----------12----------------------------------------------------------------|
--------------------------------------------------------------------------------|


------------------------------------------------------------------1h----3-------|
------------------------------------------------------------3-----------------6-|
------9-----------10----------------8-----6h----5-----6-------------------------|
--------------------------------------------------------------------------------|


------------------------------------|
----8-----8t----------------6--8----|
------------------------------------|
------------------------------------|


--------------------------1-----------3-----------------------------------------|
--10----------------------0-----------5--------------2h-5--8--------------------|
--12----------------------0-----------3-----------5-----------6h----5-----1-----|
--------------------------3-----------4-----------------------------------------|


--------------------|
------6-------------|
------5-------------|
------5-------------|


--5-----------------------------------------------------------------------------|
--6-----------------3-----------3h-1--3--0--1L----------1--0h-------------------|
--4-----------0-----------0-----------------------------------5--4--5-----0-----|
--------------------------------------------------------------------------------|


--------------------------------------------------------------------------------|
--------------------------------------------------------------------------------|
------------------------8h----5-----6-------------------------------------------|
3-----0-----5-----8-------------------------------------------------------------|


----4-----------2-------------|
------------------------------|
------------------------------|
------------------------------|


--2h----3h----5h----2-----------------------------------------------------------|
--0-----------------------5-----------------------------------------5h----3-----|
--------------------------------------------------------------------------------|
--------------------------------------------------------------------------------|


---------------------------------------------------------------------------------|
1-----0-----1h----------------------------3-----------0h-------------------------|
---------------5--------------5-----------------------------------5-----------4--|h
---------------------------------------------------------------------------------|


------------------------------------|
----------------------3-------------|
----------0-------------------------|
------------------------------------|


--------------------------------------------------------------------------------|
-----------3--1-----3--0--1-----------------------------------------------------|
--------------------------------------------------------0h----1-----5-----6-----|
--0--------------------------------0--2-----5h-3--5-----------------------------|


--------------------|
--------------------|
9-----10----13------|
--------------------|


--------------------------------------------------------------------------------|
--10----------------------------------------------------------------------9-----|
--------------------------------------------------------------------------------|
--------------------------------------------------------------------------------|


------------------------------------------------------------------6-------------|
--------------------------------------------------------------------------------|
--------------------------------------------------------------------------------|
--------------------------------------------------------------------------------|


----------------------------------------5h----3h----2-----3---------------------|
----------------------------------------------------------0---------------------|
--------------------------------------------------------------------------------|
--------------------------------------------------------------------------------|


--------------------------------------------------3-----------------------------|
--------------------------------------------------------------------------------|
--------------------------------------------------------------------------------|
--------------------------------------------------------------------------------|


------------------------------------------------------------------------------0-|
------------------------1h----------------3-----------------5-------------------|
--------------------------------------------------------------------------------|
--------------------------------------------------------------------------------|


----------------2-----------------3h-------5h-------6h-------5h-------6h-------3-|
---------------------------------------------------------------------------------|
---------------------------------------------------------------------------------|
---------------------------------------------------------------------------------|


--------4--------2t-------3-----------------------------------2t----------------|
--------------------------------------------------------------------------------|
--------------------------------------------------------------------------------|
--------------------------------------------------------------------------------|


---------3----------|--3----||
--------------------|--1----||
--------------------|-------||
--------------------|-------||

            
            
Suggest correction
Creating personal tab
Creating personal tab
You can edit any tab online and save it as your Personal.

You can edit, replace or remove any tab part or add personal notes – all changes will be seen only by you.

Personal tabs can be accessed anytime from any device, even offline.
Learn more »
Give kudos to tab author, rate the tab!
1 2 3 4 5
comments
print report bad tab
guest
You may want to rate the tab now too:
select rating
Wanna post a correction for this tab? Suggest correction