Oops, an error
Loading. Please wait.

All Bow Down Bass Tab

2,268 views 3 this week
no commentswrite comment
1 2 3 4 5
please rate
add to favorites
launch autoscroll
font size
0
reset
guitar tuner
Autoscroll
slow
fast
+/-
esc
set tempo
stop
Help us to improve Ultimate-Guitar.com Take our survey!
×
Author
Standard Tuning 4-String

B B' F# A B'
E E' B D E
A A' E G A'



Intro
G ------------------|------------------|------------------|------------------|
D -------9----7-9~--|-------9----7-9~--|-------9----7-9~--|-------9----7-9~--|
A ----------9-------|----------9-------|----------9-------|----------9-------|
E -7~---------------|-7~---------------|-7~---------------|-7~---------------|


Verse 1
G ------------------|------------------|------------------|
D -------9----7-9~--|-------9----7-9~--|-------9----7-9~--|
A ----------9-------|----------9-------|----------9-------|
E -7~---------------|-7~---------------|-7~---------------|

|------------------|------------------|------------------|
|-------9----7-9~--|-------9----7-9~--|-------9----7-9~--|
|----------9-------|----------9-------|----------9-------|
|-7~---------------|-7~---------------|-7~---------------|

G -------------------|-------------------|
D -------2-----0-2~--|-------2-----0-2~--|
A -----------2-------|-----------2-------|
E -0~----------------|-0~----------------|


Verse 2
G ------------------|------------------|------------------|
D -------9----7-9~--|-------9----7-9~--|-------9----7-9~--|
A ----------9-------|----------9-------|----------9-------|
E -7~---------------|-7~---------------|-7~---------------|

|------------------|------------------|------------------|
|-------9----7-9~--|-------9----7-9~--|-------9----7-9~--|
|----------9-------|----------9-------|----------9-------|
|-7~---------------|-7~---------------|-7~---------------|


G -------------------|-------------------|
D -------2-----0-2~--|-------2-----0-2~--|
A -----------2-------|-----------2-------|
E -0~----------------|-0~----------------|

G ------------------|---------------------|
D ------9-----7-9~--|------9-----7-9---9~-|
A ----------9-------|----------9----------|
E -7~---------------|-7~-------------7----|


Chorus
G ------------------|-------------------|------------------|------------------|
D ------7-----5-7~--|-------2-----0-2~--|-------9----7-9~--|-------9----7-9~--|
A ----------7-------|-----------2-------|----------9-------|----------9-------|
E -5~---------------|-0~----------------|-7~---------------|-7~---------------|

G ------------------|-------------------|------------------|--------------------|
D ------7-----5-7~--|-------2-----0-2~--|-------9----7-9~--|------9-----7-9---9~|
A ----------7-------|-----------2-------|----------9-------|----------9---------|
E -5~---------------|-0~----------------|-7~---------------|-7~-------------7---|

Chorus2 (No Bass)
You are coming again like a thief in the night
You are coming again with a shout from the sky
You are coming again to take away Your bride
To take away Your bride


Chorus 3
G ------------------|-------------------|------------------|------------------|
D ------7-----5-7~--|-------2-----0-2~--|-------9----7-9~--|-------9----7-9~--|
A ----------7-------|-----------2-------|----------9-------|----------9-------|
E -5~---------------|-0~----------------|-7~---------------|-7~---------------|

G ------------------|-------------------|------------------|--------------------|
D ------7-----5-7~--|-------2-----0-2~--|-------9----7-9~--|------9-----7-9---9~|
A ----------7-------|-----------2-------|----------9-------|----------9---------|
E -5~---------------|-0~----------------|-7~---------------|-7~-------------7---|


Bridge
G ------------------|------------------|-------------------|-------------------|
D -------9----7-9~--|------7-----5-7~--|-------2-----0-2~--|-------2-----0-2~--|
A ----------9-------|----------7-------|-----------2-------|-----------2-------|
E -7~---------------|-5~---------------|-0~----------------|-0~----------------|

G ------------------|------------------|-------------------|--------------------|
D -------9----7-9~--|------7-----5-7~--|-------2-----0-2~--|------2-----0-2~--2~|
A ----------9-------|----------7-------|-----------2-------|----------2---------|
E -7~---------------|-5~---------------|-0~----------------|-0~-------------0---|


Chorus 4
G ------------------|-------------------|------------------|------------------|
D ------7-----5-7~--|-------2-----0-2~--|-------9----7-9~--|-------9----7-9~--|
A ----------7-------|-----------2-------|----------9-------|----------9-------|
E -5~---------------|-0~----------------|-7~---------------|-7~---------------|

G ------------------|-------------------|------------------|--------------------|
D ------7-----5-7~--|-------2-----0-2~--|-------9----7-9~--|------9-----7-9---9~|
A ----------7-------|-----------2-------|----------9-------|----------9---------|
E -5~---------------|-0~----------------|-7~---------------|-7~-------------7---|

Chorus 5
G ------------------|-------------------|------------------|------------------|
D ------7-----5-7~--|-------2-----0-2~--|-------9----7-9~--|-------9----7-9~--|
A ----------7-------|-----------2-------|----------9-------|----------9-------|
E -5~---------------|-0~----------------|-7~---------------|-7~---------------|

G ------------------|-------------------|
D ------------------|-------------------|
A ------------------|-------------------|
E -5~---------------|-0~----------------|



Play Over and Over Till Song Fades Out.
G ------------------|
D -------9----7-9~--|
A ----------9-------|
E -7~---------------|



Suggest correction
Give kudos to tab author, rate the tab!
1 2 3 4 5
comments
print report bad tab
guest
You may want to rate the tab now too:
select rating
Please do not post tabs as comments. Select "correction" instead!