Oops, an error
Loading. Please wait.

All My Fountains Chords

version 3
version 3

Whole song

4,798 views 1 this week
no commentswrite comment
1 2 3 4 5
please rate
add to favorites
launch autoscroll
font size
0
reset
transpose
0
reset
display chords
guitar tuner
Autoscroll
slow
fast
+/-
esc
set tempo
stop
Help us to improve Ultimate-Guitar.com Take our survey!
×
Intro:

e|--4-----------------|  (C#m) x 8
A|--5-----5-----------|
G|--6---6----6--------|
D|--6----------6------|
A|--------------------|
E|--------------------|

Verse 1:

e|--4-----------------|   (C#m) x 2
A|--5-----5-----------|
G|--6---6----6--------|
D|--6----------6------|
A|--------------------|
E|--------------------|

This dry and desert land

e|--0-----0-----------|   (A)  x 2
A|--2---2----2--------|
G|--2----------2------|
D|--2-----------------|
A|--0-----------------|
E|--------------------|

I tell myself keep walking on

e|--0-----0-----------|   (E)  x 4
A|--0---0----0--------|
G|--1----------1------|
D|--2-----------------|
A|--2-----------------|
E|--0-----------------|

C#m
Hear something up ahead
A                         E
Water falling like a song
C#m
An everlasting stream
A
Your river carries me home

e|--0-----0-----------|   (E)  x 2
A|--0---0----0--------|
G|--1----------1------|
D|--2-----------------|
A|--2-----------------|
E|--0-----------------|

E*
Let it flow, let it flow

C#m A E
C#m A E
All my fountains



Verse 2:
C#m* (once)
A flood for my soul
A*                             E
A well that never will run dry
C#m*
I’ve rambled on my own
A*                            E
Never believing I would find
C#m*
An everlasting stream
A*                         E
Your river carries me home
       A
Let it flow, let it flow

Chorus
E
Open the heavens
Come living water
        A
All my fountains
        E
Are in You
E
Strong like a river
Your love is running through
        A
All my fountains
        E
Are in You

C#m A E
C#m A E

Bridge (x4)
C#*
Come on and rain down on us
 A*                  E
Rain down on us Lord

Chorus

Chorus (palm mute)

C#m
A                           E
All my fountains are in you

C#m
A                           E*
All my fountains are in you

C#m A E
C#m A E



* - strum once
Suggest correction
Give kudos to tab author, rate the tab!
1 2 3 4 5
comments
print report bad tab
guest
You may want to rate the tab now too:
select rating
Wanna post a correction for this tab? Suggest correction