Oops, an error
Loading. Please wait.

At The Cross Love Ran Red Tab

115 views 3 this week
no commentswrite comment
1 2 3 4 5
3 more votes to show rating
add to favorites
launch autoscroll
font size
0
reset
how to read this tab
guitar tuner
Autoscroll
slow
fast
+/-
esc
set tempo
stop
Help us to improve Ultimate-Guitar.com Take our survey!
×
Author
Difficulty
novice
About this tab version
Adapted the Passion performance for one electric guitar. Was this info helpful? Yes No
Use 1/8d delay and some reverb. Overdrive is used periodically as well.

The exact number of notes played per section may not be exact.

[Intro]

e|---------------------------------------------------------------------------------------|
B|-8-8-8-8-8-8s10-10s12-12-12-12-12-12s3-3s5-5-5-5-5-5-7-7-5-5-5-5-5-5-5-5---------------|
G|---------------------------------------------------------------------------------------|
D|---------------------------------------------------------------------------------------|
A|---------------------------------------------------------------------------------------|
E|---------------------------------------------------------------------------------------|


[Verse 1]

e|---------------------------------------------------------------------------------------|
B|-8-8-8-8-8-8-10-10-12-12-12-12-12-12-3-3-5-5-5-5-5-5-7-7-5-5-5-5-5-5-5-5---------------|
G|---------------------------------------------------------------------------------------|
D|---------------------------------------------------------------------------------------|
A|---------------------------------------------------------------------------------------|
E|---------------------------------------------------------------------------------------|


[Pre-Chorus 1]

e|-10-10------10-10-----10-10------10-10-------------------------------------------------|
B|-------10---------8---------10---------8-----------------------------------------------|
G|---------------------------------------------------------------------------------------|
D|---------------------------------------------------------------------------------------|
A|---------------------------------------------------------------------------------------|
E|---------------------------------------------------------------------------------------|


[Chorus 1]

e|-----3-----3------7----7-----5-----5------8-----8--------------------------------------|
B|---------------------------------------------------------------------------------------|
G|-5-5---5-5----7-7--7-7---7-7---7-7----9-9---9-9----------------------------------------|
D|---------------------------------------------------------------------------------------|
A|---------------------------------------------------------------------------------------|
E|---------------------------------------------------------------------------------------|


[Verse 2]

e|---------------------------------------------------------------------------------------|
B|-8-8-8-8-8-8-10-10-12-12-12-12-12-12-3-3-5-5-5-5-5-5-7-7-5-5-5-5-5-5-5-5---------------|
G|---------------------------------------------------------------------------------------|
D|---------------------------------------------------------------------------------------|
A|---------------------------------------------------------------------------------------|
E|---------------------------------------------------------------------------------------|

e|-----------------------------------------------------------------------------------------|
B|-8-8-8-8-8-8-10-10-12-12-12-12-12-12-15-15-17-17-17-17-17-17-17-17-17-17-17-1-17-17-17---|
G|-----------------------------------------------------------------------------------------|
D|-----------------------------------------------------------------------------------------|
A|-----------------------------------------------------------------------------------------|
E|-----------------------------------------------------------------------------------------|


[Pre-Chorus 2]

e|-10-10------10-10-----10-10------10-10-------------------------------------------------|
B|-------10---------8---------10---------8-----------------------------------------------|
G|---------------------------------------------------------------------------------------|
D|---------------------------------------------------------------------------------------|
A|---------------------------------------------------------------------------------------|
E|---------------------------------------------------------------------------------------|


[Chorus 2]

e|-----3-----3------7----7-----5-----5------8-----8--------------------------------------|
B|---------------------------------------------------------------------------------------|
G|-5-5---5-5----7-7--7-7---7-7---7-7----9-9---9-9----------------------------------------|
D|---------------------------------------------------------------------------------------|
A|---------------------------------------------------------------------------------------|
E|---------------------------------------------------------------------------------------|


[Bridge 1]

e|------------------------------------------------------------------------------------|
B|-8-8-8-8-8-8-8=7-------------8-7----------------------------------------------------|
G|-----------------9-9-9-9-9-9-----7-7-7-7-7-7-7-7-10-10-10-10-10-10s15-15-15-15------|
D|------------------------------------------------------------------------------------|
A|------------------------------------------------------------------------------------|
E|------------------------------------------------------------------------------------|

e|-15-15-15-15-15-15-14-12-10---------------------------------------------------------|
B|---------------------------12-------------------------------------------------------|
G|------------------------------------------------------------------------------------|
D|------------------------------------------------------------------------------------|
A|------------------------------------------------------------------------------------|
E|------------------------------------------------------------------------------------|


e|-15--14-12-10--------------------------------------------------------------------------|
B|----------------12-12-12-12-12-12-15-15------------------------------------------------|
G|----------------------------------------14-14-14-14-14---------------------------------|
D|---------------------------------------------------------------------------------------|
A|---------------------------------------------------------------------------------------|
E|---------------------------------------------------------------------------------------|


[Chorus]

e|--------------------------------------------------------------------------------------------|
B|-8-8-8-8-8-8s15-15-12-12-12-12-12-12-15-15-10-10-10-10-10-10s15-15-13-13-13-13-13-13-13-13--|
G|--------------------------------------------------------------------------------------------|
D|--------------------------------------------------------------------------------------------|
A|--------------------------------------------------------------------------------------------|
E|--------------------------------------------------------------------------------------------|

e|--------------------------------------------------------------------------------------------|
B|-8-8-8-8-8-8s15-15-12-12-12-12-12-12-15-15-10-10-10-10-10-10s15-15-13-13-13-13-13-13-13-13--|
G|--------------------------------------------------------------------------------------------|
D|--------------------------------------------------------------------------------------------|
A|--------------------------------------------------------------------------------------------|
E|--------------------------------------------------------------------------------------------|

e|-------------------------------------------------------------------------------15-15-15-15--|
B|-8-8-8-8-8-8s15-15-12-12-12-12-12-12-15-15-10-10-10-10-10-10s15-15-13-13-13-13--------------|
G|--------------------------------------------------------------------------------------------|
D|--------------------------------------------------------------------------------------------|
A|--------------------------------------------------------------------------------------------|
E|--------------------------------------------------------------------------------------------|

e|-----------------------------------------------------------------------------------------------------|
B|-8-8-8-8-8-8s15-15-12-12-12-12-12-12-15-15-10-10-10-10-10-10s15-15-13-13-13-13-13-13-13-13-15-15=10--|
G|-----------------------------------------------------------------------------------------------------|
D|-----------------------------------------------------------------------------------------------------|
A|-----------------------------------------------------------------------------------------------------|
E|-----------------------------------------------------------------------------------------------------|


[Bridge 2]

e|-----------------------------------------------------------------------------------------------------|
B|-13--13--13--13--13--13--13--13--12--12--12--12--12--12--12--12--12--12--12--12--12--12--12--12------|
G|---12--12--12--12--12--12--12--12--12--12--12--12--12--12--12--12--12--12--12--12--12--12--12--12----|
D|-----------------------------------------------------------------------------------------------------|
A|-----------------------------------------------------------------------------------------------------|
E|-----------------------------------------------------------------------------------------------------|

e|-----------------------------------------------------------------------------------------------------|
B|-10--10--10--10--10--10--10--10---13--13--13---------------------------------------------------------|
G|---12--12--12--12--12--12--12--12---12--12--12-------------------------------------------------------|
D|-----------------------------------------------------------------------------------------------------|
A|-----------------------------------------------------------------------------------------------------|
E|-----------------------------------------------------------------------------------------------------|

e|-----------------------------------------------------------------------------------------------------|
B|-13--13--13--13--13--13--13--13--12--12--12--12--12--12--12--12--12--12--12--12--12--12--12--12------|
G|---12--12--12--12--12--12--12--12--12--12--12--12--12--12--12--12--12--12--12--12--12--12--12--12----|
D|-----------------------------------------------------------------------------------------------------|
A|-----------------------------------------------------------------------------------------------------|
E|-----------------------------------------------------------------------------------------------------|

e|-----------------------------------------------15-15-14-12-------------15-15-14-12-------------------------|
B|-10--10--10--10--10--10--10--10---13--13--13---------------15-12-12-12-------------15-12-12-12-15----------|
G|---12--12--12--12--12--12--12--12---12--12--12---------------------------------------------- -----14=14-14-|
D|-----------------------------------------------------------------------------------------------------|
A|-----------------------------------------------------------------------------------------------------|
E|-----------------------------------------------------------------------------------------------------|

e|---------15-15-14-12-------------15-15-14-12---------------------------------------------------------|
B|12-12-12------------15-12-12-12-------------15-12-12-12-15-------------------------------------------|
G|-----------------------------------------------------------14=14-14----------------------------------|
D|-----------------------------------------------------------------------------------------------------|
A|-----------------------------------------------------------------------------------------------------|
E|-----------------------------------------------------------------------------------------------------|

e|---------15-15-14-12-------------15-15-14-12---------------------------------------------------------|
B|12-12-12------------15-12-12-12-------------15-12-12-12-15-------------------------------------------|
G|-----------------------------------------------------------14=14-14----------------------------------|
D|-----------------------------------------------------------------------------------------------------|
A|-----------------------------------------------------------------------------------------------------|
E|-----------------------------------------------------------------------------------------------------|

e|---------15-15-14-12-------------15-15-14-12---------------------------------------------------------------|
B|12-12-12------------15-12-12-12-------------15-12-12-12-15----------------------------------------12-12-12-|
G|-----------------------------------------------------------14=14-14-14-14-14-14-14=14-14-14-14-14----------|
D|-----------------------------------------------------------------------------------------------------------|
A|-----------------------------------------------------------------------------------------------------------|
E|-----------------------------------------------------------------------------------------------------------|




************************************

| s  Slide

************************************
Suggest correction
Give kudos to tab author, rate the tab!
1 2 3 4 5
comments
print report bad tab
guest
You may want to rate the tab now too:
select rating
Wanna post a correction for this tab? Suggest correction