Oops, an error
Loading. Please wait.

Awakening Tab

version 2
version 2

Whole song

2,795 views 1 this week
no commentswrite comment
1 2 3 4 5
please rate
add to favorites
launch autoscroll
font size
0
reset
how to read this tab
guitar tuner
Autoscroll
slow
fast
+/-
esc
set tempo
stop
Help us to improve Ultimate-Guitar.com Take our survey!
×
Piano intro/verse, over and over again 

E|----------------------------------------------------|
B|----------------------------------------------------|
G|--8---7---------------------------------------------|
D|----8---8-------------------------------------------|
A|----------------------------------------------------|
E|----------------------------------------------------|


 Beginning of Bridge x2

|------------------------------------------------------------|
|13-13-13-13-13-13-15-15-16-16-16-16-16-16-18-18-20-20-20-20-|
|------------------------------------------------------------|
|------------------------------------------------------------|
|------------------------------------------------------------|
|------------------------------------------------------------|

|-------------------------------------------------------------------------|
|--------------18-18-18-18-18-18-18-18------------------------------------|
|--15-15-15-15------------------------------------------------------------|
|-------------------------------------------------------------------------|
|-------------------------------------------------------------------------|
|-------------------------------------------------------------------------|

Bridge x2

|------------------------------------------------------------|
|13-13-13-13-13-13-15-15-16-16-16-16-16-16-18-18-16-16-16-16-|
|------------------------------------------------------------|
|------------------------------------------------------------|
|------------------------------------------------------------|
|------------------------------------------------------------|

|------------------------------------------------------------|
|--------------18-18-18-18-----------------------------------|
|--15-15-15-15-----------------------------------------------|
|------------------------------------------------------------|
|------------------------------------------------------------|
|------------------------------------------------------------|

Ending to Bridge 

|------------------------------------------------------------|
|13-13-13-13-13-13-15-15-16-16-16-16-16-16-18-18-20-20-20-20-|
|------------------------------------------------------------|
|------------------------------------------------------------|
|------------------------------------------------------------|
|------------------------------------------------------------|

|------------------------------------------------------------|
|------------18-18-18-18-18-18-18-18-------------------------|
|15-15-15-15-------------------------------------------------|
|------------------------------------------------------------|
|------------------------------------------------------------|
|------------------------------------------------------------|

|------------------------------------------------------------|
|13-13-13-13-13-13-15-15-16-16-16-16-16-16-18-18-16-16-16-16-|
|------------------------------------------------------------|
|------------------------------------------------------------|
|------------------------------------------------------------|
|------------------------------------------------------------|

|------------------------------------------------------------|
|------------18-18-18-18-18-18-18-18-------------------------|
|15-15-15-15-------------------------------------------------|
|------------------------------------------------------------|
|------------------------------------------------------------|
|------------------------------------------------------------|

Outro x2

|------------------------------------------------------------|
|13-13-13-13-13-13-15-15-16-16-16-16-16-16-18-18-20-20-20-20-|
|------------------------------------------------------------|
|------------------------------------------------------------|
|------------------------------------------------------------|
|------------------------------------------------------------|

|------------------------------------------------------------|
|------------18-18-18-18-18-18-18-18-------------------------|
|15-15-15-15-------------------------------------------------|
|------------------------------------------------------------|
|------------------------------------------------------------|
|------------------------------------------------------------|

Like The rising Sun that shines awake my soul 

|------------------------------------------------------------|
|13-13-13-13-13-13-15-15-16-16-16-16-16-16-18-18-20-20-20-20-|
|------------------------------------------------------------|
|------------------------------------------------------------|
|------------------------------------------------------------|
|------------------------------------------------------------|

|------------------------------------------------------------|
|------------18-18-18-18-18-18-18-18-------------------------|
|15-15-15-15-------------------------------------------------|
|------------------------------------------------------------|
|------------------------------------------------------------|
|------------------------------------------------------------|

|------------------------------------------------------------|
|13-13-13-13-13-13-15-15-16-16-16-16-16-16-18-18-16-16-16-16-|
|------------------------------------------------------------|
|------------------------------------------------------------|
|------------------------------------------------------------|
|------------------------------------------------------------|

|------------------------------------------------------------|
|------------18-18-18-18-18-18-18-18-------------------------|
|15-15-15-15-------------------------------------------------|
|------------------------------------------------------------|
|------------------------------------------------------------|
|------------------------------------------------------------|

|------------------------------------------------------------|
|13-13-13-13-13-13-15-15-16-16-16-16-16-16-18-18-20-20-20-20-|
|------------------------------------------------------------|
|------------------------------------------------------------|
|------------------------------------------------------------|
|------------------------------------------------------------|

|------------------------------------------------------------|
|------------18-18-18-18-18-18-18-18-------------------------|
|15-15-15-15-------------------------------------------------|
|------------------------------------------------------------|
|------------------------------------------------------------|
|------------------------------------------------------------|

|------------------------------------------------------------|
|13-13-13-13-13-13-15-15-16-16-16-16-16-16-18-18-16-16-16-16-|
|------------------------------------------------------------|
|------------------------------------------------------------|
|------------------------------------------------------------|
|------------------------------------------------------------|

|------------------------------------------------------------|
|------------18-18-18-18-18-18-18-18-------------------------|
|15-15-15-15-------------------------------------------------|
|------------------------------------------------------------|
|------------------------------------------------------------|
|------------------------------------------------------------|











This one is off the album passion hope you enjoy it
Suggest correction
Give kudos to tab author, rate the tab!
1 2 3 4 5
comments
print report bad tab
guest
You may want to rate the tab now too:
select rating
Wanna post a correction for this tab? Suggest correction