Oops, an error
Loading. Please wait.

Chosen Generation Tab

13,300 views 3 this week
no commentswrite comment
1 2 3 4 5
x 4
add to favorites
launch autoscroll
font size
0
reset
how to read this tab
guitar tuner
Autoscroll
slow
fast
+/-
esc
set tempo
stop
Help us to improve Ultimate-Guitar.com Take our survey!
×
Author
Capo
4th fret
Chris Tomlin
Chosen Generation
From "Passion: Awakening"
Tabbed by thatchadmiller (Twitter)


Capo 4
139 BPM

Chorus
G                    G/B                Em
We are a chosen generation, Rise up holy nation
         C
God we live for you
G                      G/B                     Em
You have called out of darkness, into light so glorious  
        C
God we live for you


Verse 
    C                                G/B
We run with passion for your name we run
C                                 G/B
Freedom you broken every chain we run
C         
Our God will not be moved
G/B           G
Our God will never be shaken
Am7               C     
We run to you we run


Chorus, Verse, Chorus


drums only:
Our God will not be moved, Our God will never be shaken 
Our God will not be moved, Our God will never be shaken 

then instruments
C                          G/B           G
Our God will not be moved, Our God will never be shaken 
Am7               C     
We run to you we run


Chorus


Bridge
               G                    C  
Cause you are everything, more than all we need
       G/B                   Am7
God we live for you, God we live for you
                G                 C
I've found this world to be not enough for me
       G/B                   Am7
God we live for you, God we live for you


Chorus acapella


Here are the lead tabs. Very simple stuff...

Intro
e|--3--3----0--------0-------------------------------------------------|
B|--3--3--3---3----3---3-----------------------------------------------|
G|--0--0--0-----0--0-----0---------------------------------------------|
D|--0--0--2--------2---------------------------------------------------|
A|--2--2--2--------3---------------------------------------------------|
E|--3-----0------------------------------------------------------------|


Pre-verse               Verse 
e|--3-----2------------------------------------------------------------|
B|--3-x8--3-x8---------------------------------------------------------|
G|---------------then---0-0-0-0-0-repeat---2--4—2h4-0------------------|
D|---------------------------------------------------------------------|
A|---------------------------------------------------------------------|
E|---------------------------------------------------------------------|


Interlude riff
e|---------------------------------------------------------------------|
B|---------------------------------------------------------------------|
G|--4-4-4-2-2-2-4-4-4-7-7-7-7-7-7-7------------------------------------|
D|---------------------------------------------------------------------|
A|---------------------------------------------------------------------|
E|---------------------------------------------------------------------|



If you have any input or corrections, check out my blog for more info and 
let me know if you have any songs you need help with. God bless!
Suggest correction
comments
print report bad tab
guest
You may want to rate the tab now too:
select rating
Wanna post a correction for this tab? Suggest correction