Oops, an error
Loading. Please wait.

Everlasting God Chords

version 1
482,083 views 156 this week
7 commentsread comments
1 2 3 4 5
accurate
x 20
add to favorites
launch autoscroll
font size
0
reset
transpose
0
reset
display chords
guitar tuner
Autoscroll
slow
fast
+/-
esc
set tempo
stop
Help us to improve Ultimate-Guitar.com Take our survey!
×
Author
Difficulty
Capo
intermediate
1st fret
Everlasting God
Chris Tomlin
Capo 1


[Into & Verse]

-3--------------------------------------------------------|
-3--------------------------------------------------------|
-0---0-0-0-0-0-0-----0-0-0-0-0-0------0--0-0-0-0-0--------|
-2---0h2-3 3-2-0-----0-2-3-3-2-0------0h2-3-3-2-0---------|
-3--3------------------3-3------------------3------3------|
----------------------------------------------------------|


[Verse] 2x
Strength will rise as we wait upon the Lord
We will wait upon the Lord
We will wait upon the Lord


[Pre Chorus]
     F                  A     G#m
Our God, You reign forever
     F                A     G#m
Our hope, our Strong Deliverer


[Chorus 1]
C                        F
You are the everlasting God
                 Am
The everlasting God
                      F
You do not faint you won't grow weary


[Intro]
[Verse] 2x
[Pre Chorus]
[Chorus 1]


[Chorus 2]
You're the defender of the weak
You comfort those in need
You lift us up on wings like eagles


[Intro]
[Pre Chorus]
[Chorus 1]
[Chorus 2]


[Chorus 3]
C              F
               From Everlasting
          Am
to everlasting
                 F
God You are everlasting


[Intro]

End on C
Suggest correction
comments
print report bad tab
7 comments total. Showing first comments.
+1 reply
jonboytang 146 wrote on December 12 2006, 11:36 pm

Actually 2 guitars and one plays this...don't forget capo I
------------|---------------|---------------|---------------|
------------|---------------|---------------|---------------|
--------0-0-|---------------|---------------|---------------|
----0h2-----|-2-3-3-2-0---0-|-2-3-3-2-0---0-|-2-3-3-2-0---0-|
---3--------|-----------3---|-----------3---|-----------3---|
------------|---------------|---------------|---------------|

0 reply
firemusician 30 wrote on April 28 2008, 01:35 pm

Plz change the chord progression. It should be Am instead of A and G instead of G#m. Apart from that it's pretty accurate.

0 reply
figbassist75 10 wrote on March 3 2010, 10:00 am

I second what the other posters said, however I have to say this version fits the recorded version the best out of all of them posted previously. I do not get where people say it is in the Key of G, with a capo on the third fret. That does not go with the recording at all. I know because I just finished using this version with my iPod on this song. Keep up the good work!

guest
You may want to rate the tab now too:
select rating
Please do not post tabs as comments. Select "correction" instead!