Oops, an error
Loading. Please wait.

Everlasting God Tab

version 1
version 1

Intro

Whole song

28,920 views 18 this week
2 commentsread comments
1 2 3 4 5
accurate
x 5
add to favorites
launch autoscroll
font size
0
reset
how to read this tab
guitar tuner
Autoscroll
slow
fast
+/-
esc
set tempo
stop
Help us to improve Ultimate-Guitar.com Take our survey!
×
Author
Band:   Chris Tomlin
Song:   Everlasting God (Intro)
Album:  See the Morning
Tuning: Standard
Capo:   6th Fret

Tab relative to capo.

Tabbed By:  Sam Stevens
Email:      Sstevens2009@gmail.com
==========================================================

E--------------------------------------------------------|
B--------------------------------------------------------|
G--------------------------------------------------------|
D--------------------------------------------------------|
A---------2-3-2-3-3--3-2-0---0-2-3--3-2-0--0-2-3--3-2-0--|
E--3--3\5------------------3-------------3--------------3|
       ^ Can also be played as a hammer on
E--------------------------------------------------------|
B--------------------------------------------------------|
G--------------------------------------------------------|
D--------------------------------------------------------|
A-------0-2-3-2-3-3--3-2-0---0-2-3--3-2-0--0-2-3--3-2-0--|
E-----3--------------------3-------------3--------------3|

There was only one tab for the intro that I found, and it
wasn't exactly right.  This is what it sounds like to me.

The rest of the song is mainly chords... In the verse
though, he plays a variation of the intro... I haven't
listened to it enough to be sure, but its much the same
and shouldn't be hard to figure out.


| /  slide up
| \  slide down
| h  hammer-on
| p  pull-off
| ~  vibrato
| +  harmonic
| x  Mute note
==========================================================
Suggest correction new What's this?
You can suggest a correction to this tab. Community and Mods will review your correction and vote to approve or reject it.
comments
print report bad tab
2 comments total.
0 reply
Jake732 62 wrote on May 25 2009, 02:31 pm

perfect, well done. great song to. Thanks

0 reply
11BUGG18 11 wrote on May 11 2013, 03:03 pm

I dont really know much about music and stuff but this sounds right to my ears.
E-------------------------------------------------|
B-------------------------------------------------|
G-------------------------------------------------|
D-------------------------------------------------|
A------5-5-5-2-3-3-2-0--0-2-3-3-2-0-0-2-3-3-2-0---|
E--3-3-----------------3-----------3-----------3--|

guest
You may want to rate the tab now too:
select rating
Please do not post tabs as comments. Select "correction" instead!