Oops, an error
Loading. Please wait.

He Shall Reign Forevermore tab

202 views 1 this week
no commentswrite comment
1 2 3 4 5
3 more votes to show rating
add to favorites
×
Save as Personal and add changes to this tab that will be seen only by you. Learn more ›
×
You can save this tab as Personal to edit and correct it or add notes. All changes will be seen only by you. Learn more »
launch autoscroll
font size
0
reset
how to read this tab
guitar tuner
edit
Autoscroll
slow
fast
+/-
esc
set tempo
stop
Author
-------------------------------------------------------------------------------
                 he shall reign forevermore - Chris Tomlin
-------------------------------------------------------------------------------
Tabbed by:
E-mail:
key of Em one sharp
Tuning:E-A-D-G-B-e

e|---------------------------------------------------------------------------|
B|-----------------------------0---0------------------------------------0----|
G|--------------------0---2------2-------2-----------------------0----2------|
D|-2--0----2----0--2--2-----------------------2--0---2----0---2--2-----------|
A|-----------------3------------------------------------------3--------------|
E|-0-------0--------------3------3-------3----0------0----------------3------|
  in the bleak midwinter all creation groans for a world of darkness frozen
e|---------------------------------------------------------------------------|
B|-----0---------1----0------------------0-------0---------------------------|
G|-2-------2--------------2-0-------0--2------2-------2----------------------|
D|----------------------------2---2------------------------------------------|
A|------------------------0-------3------------------------------------------|
E|-3-------3---------------------------3------3-------3----------------------|
  like a stone light is breaking in a stable for a throne 
e|----------------------------------------------------------------------------|
B|-----------3---0-----1-------1--0--0-----1-0-----------3-----1-------1--0--0|
G|-------0---4---0-----0----0--2--0--0--0--2-0--2---0----4-----0----0--2--0--0|
D|-------0------------------2-------------------3---0---------------2---------|
A|--------------------------------------2-------------------------------------|
E|----------------------------------------------------------------------------|
chorus: and He shall reign forevermore forevermore and shall reign forevermore
e|-----------------------------------------------------------------------------|
B|--1--0-------0-0--0----------------------0----0--0----0----0---------------3-|
G|0-2--0-2------------0---2----0--0------------------------------2---2----0--4-|
D|0------4-----0-0--0------------------0---0----0--0----0----2---0---0---------|
A|--------------------2---3----2--2--------------------------------------------|
E|-----------------------------------------------------------------------------|
  forevermore unto us a child is born the king of king and lord of lords and he 
e|---------------------------------------------------------------------------|
B|--0-----1-------1--0-0-----1-0---------------------------------------------|
G|--0-----0----0--2--0-0---0-2-0--2------------------------------------------|
D|-------------2-----------0------4------------------------------------------|
A|---------------------------------------------------------------------------|
E|---------------------------------------------------------------------------|
  shall reign forevermore forevermore
e|----------------------------------------------------------------------------|
B|----------1--0--------------------------------------------------------------|
G|-------0--2--0-2--------0--0--0-----0----0-----------0---0----0---0--2----2-|
D|-------0-------4---3-------------3-----------0---3------------------------0-|
A|----------------------------------------------------------------------------|
E|-------------------1----3--3--3--1--3----3-------1---3---3----3---3---------|
bridge: forevermore here within a manger lies the one who made the starry skies
e|-----------------------------------------------------------------------------|
B|------0-0---0------------------0-----1---0---0-------------------------------|
G|--0-------------2---2--2--0----0-----2---2---2--------0---0--0--0----0-----0-|
D|-------------------------------0-----2---2---2---0-4--------------4----------|
A|------2-2---2---0---0--0-------------------------0-2-------------------------|
E|--3-----------------------3--------------------------------------------------|
  this baby born for sacrifice Christ the messiah into our hopes into our fears
e|-------------------------------------------------------------------------------|
B|-------------------------------------0-0-----0------------------0----1---0-0---|
G|-0------0---0--0----0----2---2---0---------------2--2----0------0----2---0-0-2-|
D|-----4-----------------------------------------------------------------------3-|
A|-------------------------------------------------------------------------------|
E|-------------------------------------------------------------------------------|
  the savior of the world appears the promise of eternal years Christ the Messiah

************************************

| /   slide up
| \   slide down
| h   hammer-on
| p   pull-off
| ~   vibrato
| +   harmonic
| x   Mute note
| b   Bend
| pb  Pre-bend
| br  Bend release
| pbr Pre-bend release
| brb Bend release bend

************************************

            
            
Suggest correction
Creating personal tab
Creating personal tab
You can edit any tab online and save it as your Personal.

You can edit, replace or remove any tab part or add personal notes – all changes will be seen only by you.

Personal tabs can be accessed anytime from any device, even offline.
Learn more »
Give kudos to tab author, rate the tab!
1 2 3 4 5
comments
print report bad tab
guest
You may want to rate the tab now too:
select rating
Wanna post a correction for this tab? Suggest correction