Oops, an error
Loading. Please wait.

Indescribable Bass Tab

version 2
version 2

Whole song

  • This specific tab is based off the studio recorded... Show more
28 views 3 this week
no commentswrite comment
1 2 3 4 5
3 more votes to show rating
add to favorites
launch autoscroll
font size
0
reset
guitar tuner
Autoscroll
slow
fast
+/-
esc
set tempo
stop
Help us to improve Ultimate-Guitar.com Take our survey!
×
Author
Difficulty
intermediate
About this tab version
This specific tab is based off the studio recorded version(https://www.youtube.com/watch?v=NqMYHmoXMAQ), remember the timing of the song goes 123 123 123 like a waltz. Was this info helpful? Yes No
This specific tab is based off the studio recorded version(https://www.youtube.com/watch?v=NqMYHmoXMAQ
Remember the timing of the song goes 123 123 123 like a waltz.

[Intro]
G|---------------------------|
D|---------------------------|
A|--7-7h9---7-7h9------------|
E|----------------7-5-4------|

[Verse 1]
   From the highest of heights to the depths of the sea
G|------------------------------------------------------------------|
D|------------------------------------------------------------------|
A|------------------------------------------------------------------|
E|---4------------------6-----------------------------7---7-4-7-9---|

   Creation's revealing Your majesty
G|-------------------------------------------------|
D|-------------------------------------------------|
A|-------------------------------------------------|
E|----9-------------7---------------5----5-7-5-4---|

   From the colors of fall to the fragrance of spring
G|---------------------------------------------------------------|
D|---------------------------------------------------------------|
A|---------------------------------------------------------------|
E|---4-------------------6--------------------------7--7-4-7-9---|

   Every creature unique in the song that it sings
G|--------------------------------------------------|
D|--------------------------------------------------|
A|--------------------------------------------------|
E|----9---------------7-------------------------5---|

   All exclaiming
G|---------------------------|
D|---------------------------|
A|---------------------------|
E|---4-6-7-------------------|

[Chorus]
 Indescribable, uncontainable,
G|---------------------------|
D|---------------------------|
A|--------7-9----------------|
E|---7-7-9-------------------|

 You placed the stars in the sky and You know them by name.
G|----------------------9----------|
D|-------------------7-------------|
A|---9-11-9-7----7-9-------9-7-6---|
E|---------------------------------|

 You are amazing God
G|---------------------------|
D|---------------------------|
A|---------4-6---------------|
E|--4--4-6-------0-2-4-6-7---|

 All powerful, untameable,
G|---------------------------|
D|---------------------------|
A|---------7-9---------------|
E|---7-7-9-------------------|

 Awestruck we fall to our knees as we humbly proclaim
G|---------------------9----------|
D|-------------------7------------|
A|---9-11-9-7----7-9------9-7-6---|
E|--------------------------------|

 You are amazing God
G|---------------------------|
D|---------------------------|
A|--------4-6-7-7h9----------|
E|--4-4-6-----------7-5-4----|

[Verse 2]
 Who has told every lightning bolt where it should go (start playing in groups of 3)
G|----------------------------------------------------------------------|
D|----------------------------------------------------------------------|
A|----------------------------------------------------------------------|
E|--4---------------------------------6--------------7--------7-4-7-9---|

 Or seen heavenly storehouses laden with snow
G|-------------------------------------------------------------|
D|-------------------------------------------------------------|
A|-------------------------------------------------------------|
E|--9---------------7---------------------5----------5-7-5-4---|

 Who imagined the sun and gives source to it's light
G|---------------------------------------------------------------|
D|---------------------------------------------------------------|
A|---------------------------------------------------------------|
E|--4--------------------6--------------------------7--7-4-7-9---|

 Yet conceals it to bring us the coolness of night
G|--------------------------------------------------|
D|--------------------------------------------------|
A|--------------------------------------------------|
E|--9---------------------7---------------------5---|

 None can fathom
G|---------------------------|
D|---------------------------|
A|--------7-6-4--------------|
E|--0-2-4--------------------|

[Outro]
 Indescribable, uncontainable,
G|---------------------------|
D|---------------------------|
A|--------7-9----------------|
E|---7-7-9-------------------|

 You placed the stars in the sky and You know them by name.
G|----------------------9----------|
D|-------------------7-------------|
A|---9-11-9-7----7-9-------9-7-6---|
E|---------------------------------|

 You are amazing God
G|---------------------------|
D|---------------------------|
A|---------4-6---------------|
E|--4--4-6-------0-2-4-6-7---|

 All powerful, untameable,
G|---------------------------|
D|---------------------------|
A|---------7-9---------------|
E|---7-7-9-------------------|

 Awestruck we fall to our knees as we humbly proclaim
G|---------------------9----------|
D|-------------------7------------|
A|---9-11-9-7----7-9------9-7-6---|
E|--------------------------------|

 You are amazing God
G|---------------------------|
D|---------------------------|
A|--------4-6-7-6-4-2-4------|
E|--4-4-6--------------------|

 You are amazing God (musical interlude about 2:18 in or so)
G|----------------------------------------------|
D|----------------------------------------------|
A|--4-2-0---0-2-3-5----9-7-5-3-2----7-5-7-9-----|
E|------------------------------------------7---|

 Indescribable, uncontainable,
G|---------------------------|
D|---------------------------|
A|--------7-9----------------|
E|---7-7-9-------------------|

 You placed the stars in the sky and You know them by name.
G|----------------------9----------|
D|-------------------7-------------|
A|---9-11-9-7----7-9-------9-7-6---|
E|---------------------------------|

 You are amazing God
G|---------------------------|
D|---------------------------|
A|---------4-6---------------|
E|--4--4-6-------0-2-4-6-7---|

 All powerful, untameable,
G|---------------------------|
D|---------------------------|
A|---------7-9---------------|
E|---7-7-9-------------------|

 Awestruck we fall to our knees as we humbly proclaim
G|---------------------9----------|
D|-------------------7------------|
A|---9-11-9-7----7-9------9-7-6---|
E|--------------------------------|

 You are amazing God
G|---------------------------|
D|---------------------------|
A|--------4-6----------------|
E|--4-4-6-----0-2-4-6-7------|

 Incomparable, unchangeable
G|---------------------------|
D|---------------------------|
A|--------7-9----------------|
E|---7-7-9-------------------|

 You see the depths of my heart and You love me the same
G|----------------------9----------|
D|-------------------7-------------|
A|---9-11-9-7----7-9-------9-7-6---|
E|---------------------------------|

 You are amazing God
G|---------------------------|
D|---------------------------|
A|---------4-6---7-7h9-------|
E|--4--4-6-------------------|

 You are amazing God
G|---------------------------|
D|---------------------------|
A|--7-7h9--7-----------------|
E|---------------------------|


************************************

| h  Hammer-on

************************************
Suggest correction
Give kudos to tab author, rate the tab!
1 2 3 4 5
comments
print report bad tab
guest
You may want to rate the tab now too:
select rating
Wanna post a correction for this tab? Suggest correction