Oops, an error
Loading. Please wait.

Indescribable Tab

version 2
version 2

Whole song

Video

21,971 views 1 this week
2 commentsread comments
1 2 3 4 5
accurate
x 6
add to favorites
launch autoscroll
font size
0
reset
how to read this tab
guitar tuner
Tab Pro tools
  • play this tab
  • loop segment
  • change instrument
  • show fretboard
  • metronome
×
Best way to learn
"Indescribable"
Autoscroll
slow
fast
+/-
esc
set tempo
stop
Contributor
Difficulty
Capo
Tabbers playing skills
novice
4th fret
intermediate
------------------------------------------------------------------------------
                         I N D E S C R I B A B L E   -   C H R I S     T O M L I N
------------------------------------------------------------------------------

Tabbed by: Hunter

Tuning:Standard(EADGBe) Capo 4th Fret



~   - let ring out
/ \ - slide
v   - vibrato
>   - strumming not defined
p   - pull off
h   - hammer on

GUITAR 1'S PARTS:
-----------------
Chords Used:
  Csus2 Em  D/F#  G  Am  F  Dsus2  B/G A#sus2  G#
e|--3----0--------3---0--1----0-----3-----1-----------------------------------|
B|--3----0---3----3---1--1----3-----3-----1-----------------------------------|
G|--0----0---2----0---2--2----2-----0-----3-----------------------------------|
D|--2----2---0----0---2--3----0-----0-----3----6------------------------------|
A|--3----2---x----2---0--3----------2-----1----6------------------------------|
E|-------0---2----3------1---------------------4------------------------------|

Intro:  Csus2

Verse:

Em - D/F# - G
Am - G - F
Em - D/F# - G
Am - G - F
Csus2 - G

Chorus:

G - Dsus2 - Csus2
Em - B/G - Csus2
G - Dsus2 - Csus2
Em - B/G - Csus2

Repeat Intro

Repeat Verse

Repeat Chorus

Bridge:

Am - G - F
A#sus2 - G#

Repeat Chorus: (2x)

End on:  Csus2

GUITAR 2'S PARTS:
-----------------
Intro:  (2x)
e|---------------------------------------------------------------------------|
B|---------12-11------9------------------------------------------------------|
G|----9h11--------11-----9--9/11~--------------------------------------------|
D|-9-------------------------------------------------------------------------|
A|---------------------------------------------------------------------------|
E|---------------------------------------------------------------------------|

Verse:  "...fragrance of spring..."
e|--9/11v~------12v~---------------------------------------------------------|
B|---------------------------------------------------------------------------|
G|---------------------------------------------------------------------------|
D|---------------------------------------------------------------------------|
A|---------------------------------------------------------------------------|
E|---------------------------------------------------------------------------|

Chorus:  (4x)
e|---------------------------------------------------------------------------|
B|---------------------------------------------------------------------------|
G|-16>---15>---13>>----------------------------------------------------------|
D|--x-----x-----x------------------------------------------------------------|
A|-14>---13>---11>>----------------------------------------------------------|
E|---------------------------------------------------------------------------|

Repeat Intro

2nd Verse:
e|---------------------------------------------------9/11~----11p9-7---------|
B|-------------------------------------------------------------------7-7/9v~-|
G|-----------8v~---9~-----------11-9-8-6-8-9-8~------------------------------|
D|--9--11--9--------------11/13----------------------------------------------|
A|---------------------------------------------------------------------------|
E|---------------------------------------------------------------------------|

Repeat Chorus

Bridge:  (Same as guitar 1)

Repeat Chorus:  (2x)

Repeat Intro:  (4x)

Enjoy everyone!  E-mail any questions, comments, requests to:
comments
print report bad tab
2 comments total.
0 reply
mtowenby wrote on October 16 2010, 01:00 am

Pretty good...one correction I see is the B/G is actually a G/B...pretty sure the Am is an Am7...pretty good otherwise.

0 reply
Rockn'rolldad wrote on November 17 2010, 11:56 pm

Are you sure this song isn't Eb? because when I play this tab along with the recorded song it works perfect... but I have to capo 3 and move everything down a fret.

I want to post or [tab]
guest
You may want to rate the tab now too:
select rating
Please do not post tabs as comments. Select "correction" instead!