Oops, an error
Loading. Please wait.

Jesus Messiah Tab

version 2
version 2

Whole song

2,759 views 6 this week
no commentswrite comment
1 2 3 4 5
please rate
add to favorites
launch autoscroll
font size
0
reset
how to read this tab
guitar tuner
Tab Pro tools
  • play this tab
  • loop segment
  • change instrument
  • show fretboard
  • metronome
×
Best way to learn
"Jesus Messiah"
Autoscroll
slow
fast
+/-
esc
set tempo
stop
Contributor
Difficulty
Capo
novice
4th fret
Jesus Messiah 

Capo 4
Key of B     *Quarter note Delay*

Intro: (not relative to Capo)
e-----------------------------------------------------|-------------------------------|
B----12-11-12----------12-11-12---------12-11-12------|----12-11-12--------11-12-14~--|
G--11-------11--11---11------11--11---11-------11--11-|--11-------11--11--11----------| 
D-13----------13----14---------14----13----------13---|-11----------11---11-----------| 
A------(x2)--------------(x2)--------------(x2)-------|-------------------------------|
E-----------------------------------------------------|-------------------------------|

(chords relative to Capo)
Verse 1:
G
He became sin 
Am7
Who knew no sin 
G/B                  C2     
That we might become His Righteousness 
G                     Am7
He humbled himself and carried the cross 

G/B       C2
Love so amazing 
  D       C2
Love so amazing 

Verses: (not relative to capo) (play the B string notes during Verse 2) *Distortion*
e-------------------------------------------------------------------------------------|
B--------------11~---------------------------12--12~-----------------------12~--14~---|
G-44444444---4--4--4--4--4--4--4--4---4--4--4--4--4--4--4--4---4--4--4--4--4--4--4--4-| 
D-99999999-/11-11-11-11-11-11-11-11-/13-13-13-13-13-13-13-13-/14-14-14-14-14-14-14-14-| 
A-------------------------------------------------------------------------------------|
E-------------------------------------------------------------------------------------|

e--------------------------------------|
B--------------------------------------|
G-44444444---4--4--4--4--4--4--4--4-4~-| 
D-99999999-/11-11-11-11-11-11-11-11-4~-| 
A--------------------------------------|
E--------------------------------------|

(relative to Capo) *Distortion*
e-3-2-3-------3---|---3-2-3-------3---|-3333-33-|
B------3--3--3-3~-|--3-----3--3--3-3~-|-3333-33-|
G--------0--------|----------0--------|-0000-00-| 
D-----------------|-0-----------------|-2222-22-| 
A-----------3-----|-------------3-----|-3333-33-|
E-----------------|-------------------|---------|
                           C2
Chorus: (play basic chords)
G
Jesus Messiah 
           C2
Name above all names 
        G
Blessed Redeemer
     D
Emmanuel 
G
The rescue for sinners 
                 C2
The ransom from Heaven 
      G/B     D
Jesus Messiah 
        G
Lord of all 

Verse 2:
His body the bread 
His blood the wine 
Broken and poured out all for love 
The whole earth trembled 
And the veil was torn 

Bridge: (play basic chords)
Am7                G/B
All our hope is in You 
C2                  D
All our hope is in You 
Am7              G/B
All the glory to You, God 
C2                D
The light of the world 

(Repeat Chorus) 

Guitar 2 

Chorus: (not relative to capo) *Distortion*
e|------------------------------------|----------------||--------------------------|
B|--/17-16-16-14-16-16-14-16-16-14-16-|16/19-19-19-19--||-16-16-16-16--14--12--12~-|
G|*---4--4--4--4--4--4--4--4--4--4--4-|-4--4--4--4--4-*||--4--4--4--4---4---4---4--| 
D|*-----------------------------------|---------------*||--------------------------| 
A|------------------------------------|----------------||-------------(8x)-(4x)----|
E|------------------------------------|----------------||--------------------------|
        skip to coda on third time-^                Coda
comments
We did not receive enough feedback on this tab! Please rate:
print report bad tab
1 2 3 4 5
I want to post or [tab]
guest
You may want to rate the tab now too:
select rating
Please do not post tabs as comments. Select "correction" instead!