Oops, an error
Loading. Please wait.

Jesus Paid It All Tab

version 1
version 1

Acoustic

  • This provides the main riff for the song in an easy key to play it in.

Whole song

19 views 6 this week
no commentswrite comment
1 2 3 4 5
2 more votes to show rating
add to favorites
launch autoscroll
font size
0
reset
how to read this tab
guitar tuner
Autoscroll
slow
fast
+/-
esc
set tempo
stop
Help us to improve Ultimate-Guitar.com Take our survey!
×
Author
Difficulty
Capo
novice
2nd fret
About this tab version
This provides the main riff for the song in an easy key to play it in. Was this info helpful? Yes No
Hello this is my first tab! I hope it sounds correct! 
This is just the main vocals in the chorus but can be used 
to play however you like.

[Chorus]
      A                D            A               E
e|---------------------------------------------------------------------------|
B|---------------------------------------------------------------------------|
G|---------------------2-----------------------------------------------------|
D|----2---4---2---------------------2---4---2--------------------------------|
A|----------------4-----------------------------4---2------------------------|
E|---------------------------------------------------------------------------|
      Jesus paid it all..          All to him I owe

      A               D          A      E          A
e|---------------------------------------------------------------------------|
B|---------------------------------------------------------------------------|
G|--------------------2--1-------2-------------------------------------------|
D|----2---4---2--------------4-----------------------------------------------|
A|----------------4------------------4--5--4---2---0-------------------------|
E|---------------------------------------------------------------------------|
      Sin had left a crimson stain, he washed it white as snow.

************************************

Suggest correction
Give kudos to tab author, rate the tab!
1 2 3 4 5
comments
print report bad tab
guest
You may want to rate the tab now too:
select rating
Wanna post a correction for this tab? Suggest correction