Oops, an error
Loading. Please wait.

Jesus Paid It All Chords

version 1
version 1

Whole song

99,431 views 48 this week
4 commentsread comments
1 2 3 4 5
excellent!
x 18
add to favorites
launch autoscroll
font size
0
reset
transpose
0
reset
simplify chords
display chords
guitar tuner
Autoscroll
slow
fast
+/-
esc
set tempo
stop
Help us to improve Ultimate-Guitar.com Take our survey!
×
Author
-------------------------------------------------------------------------------
                             JESUS PAID IT ALL - Chris Tomlin

Tabbed by: The Count of Monte Cristo

This is one of my favorite hymns.  Very easy to play.  Just a three chord
song.  

Tuning: Standard, Key of B (Capo IV)

Intro / Walk (playe straight and rugged):
Good to use your idle thumb to mute the low E string.

      G      G/B     C     G/B     D     G/B    C     G/B-D
e|----------------------------------------------------------|
B|----------------------------------------------------------|
G|----------------------------------------------------------|
D|----------------------------------------------------------|
A|--2-2-2-2--2-2--3-3-3-3--2-2--0-0-0-0--2-2--3-3-3-3--2-0--|
E|--3-3-3-3--X-X--X-X-X-X--X-X--X-X-X-X--X-X--X-X-X-X-------|

e|--------------------------------------------3~~~~---------|
B|--------------------------------------------3~~~~---------|
G|--------------------------------------------0~~~~---------|
D|--------------------------------------------2~~~~---------|
A|--2-2-2-2--2-2--3-3-3-3--2-2--0-0-0-0--2-2--3~~~~---------|
E|--3-3-3-3--X-X--X-X-X-X--X-X--X-X-X-X--X-X--X-------------|


Chords used:

     G       C2      D/F#
e|---3---  ---3---  ---3---|  
B|---3---  ---3---  ---3---|  
G|---0---  ---0---  ---2---|  
D|---0---  ---2---  ---0---|  
A|---2---  ---3---  ---0---|  
E|---3---  ---X---  ---2---| 


[Verse]

 (chords same for all verses):
   G           
I hear the Saviour say
     D/F#              G
Thy strength indeed is small.
(G)                         C2
Child of weakness watch and pray
        G        D/F#    G
Find in me thine all in all.


[Chorus]

G             C2
Jesus paid it all.
G            D/F#
All to Him I owe.
G                C2
Sin had left a crimson stain,
    G        D/F#      G
He washed it white as snow.


[Refrain]

 can be played over the intro / walk too
     G                 C2
Oh praise the one who paid my debt
     G                   C2
And raised this life up from the dead.
Suggest correction
What's this?
You can suggest a correction to this tab. Community and Mods will review your correction and vote to approve or reject it.
comments
print report bad tab
4 comments total. Showing first comments.
+1 reply
Veniversum 36 wrote on May 8 2009, 02:50 pm

Should the second line of the refrain not go G/B and then C2? and there might be a passing chord for "crimson stain"...i'll get back on that one when i have time lol

0 reply
Monte Cristo 298 wrote on February 1 2010, 09:01 pm

That's a valid idea... it should technically be a G/B.
There is little difference in sound since that 'B' gets in in either chord.

0 reply
dranstheman 690 wrote on May 30 2013, 11:16 pm

I like how it sounds a lot better when the intro is played with full chords like this:


G G/B C G/B Am7 G/B C G/B-Am7
e|--3-3-3-3--3-3--3-3-3-3--3-3--3-3-3-3--3-3--3-3-3-3--3-3--|
B|--3-3-3-3--0-0--1-1-1-1--0-0--1-1-1-1--0-0--1-1-1-1--0-1--|
G|--0-0-0-0--0-0--0-0-0-0--0-0--2-2-2-2--0-0--0-0-0-0--0-2--|
D|--0-0-0-0--0-0--2-2-2-2--0-0--2-2-2-2--0-0--2-2-2-2--0-2--|
A|--2-2-2-2--2-2--3-3-3-3--2-2--0-0-0-0--2-2--3-3-3-3--2-0--|
E|--3-3-3-3--X-X--X-X-X-X--X-X--X-X-X-X--X-X--X-X-X-X-------|

guest
You may want to rate the tab now too:
select rating
Please do not post tabs as comments. Select "correction" instead!