Oops, an error
Loading. Please wait.

Let God Arise Bass Tab

version 1
version 1

Whole song

6,344 views 3 this week
no commentswrite comment
1 2 3 4 5
please rate
add to favorites
launch autoscroll
font size
0
reset
guitar tuner
Autoscroll
slow
fast
+/-
esc
set tempo
stop
Help us to improve Ultimate-Guitar.com Take our survey!
×
Author
Difficulty
intermediate
 Let God Arise - Chris Tomlin
----------------------------------------------------------------------------
Chris Tomlins bass player is very smooth and he moves 
when it feels right. There is more detail, but this will get you 
through better than average. Good Luck!

Tabbed By : schlepie
e-mail: bas78132@gmail.com 

Tuning:standard
starts when full band plays after intro

Full Intro
G|---------------------|
D|---------------------|X2
A|---------------------|
E|555-77777-777-00-2-44|

Verse 1
G|----------------------------|
D|------------------------9/11|
A|----------------------9-----|
E|5557----5557----5557--------|

Pre chorus 1
G|------------------------------------------------|
D|------------------------------------------------|
A|------------------------------------------------|
E|4------6-7-2------2---6-7-0---4---2----0---4---2|

Chorus
G|--------------------------------|
D|--------------------------------|X2
A|--------------------------------|
E|5557777777777777-55577777777777-|

(Back to Full intro X2)

Prechorus 2

G|-----------------------------------------------|
D|-----------------------------------------------| X2 walk up to chorus
A|------------------------------------1-1-4-4-2-2|
E|4------676-----67-000--444--222--2-2-----------|

(Chorus) X2

Instrumental(bass/guitar)

G|-------------------------|
D|-------------------------|
A|-------------------------|
E|0---4---2-------0---4---2|
   Our God is................
G|---------------------------------------|
D|---------------------------------------|
A|---------------------------------------| X2
E|000--444--222--222--000--444--222--222-|

Chorus X2

Full intro as the outro X4


| /  slide up
| \  slide down
| h  hammer-on
| p  pull-off
| ~  vibrato
| +  harmonic
| x  Mute note
===============================================================================
Suggest correction
Give kudos to tab author, rate the tab!
1 2 3 4 5
comments
print report bad tab
guest
You may want to rate the tab now too:
select rating
Wanna post a correction for this tab? Suggest correction