Oops, an error
Loading. Please wait.

Let God Arise Bass Tab

version 2
version 2

Whole song

1,460 views 1 this week
1 commentread comment
1 2 3 4 5
please rate
add to favorites
launch autoscroll
font size
0
reset
guitar tuner
Tab Pro tools
  • play this tab
  • loop segment
  • change instrument
  • show fretboard
  • metronome
×
Best way to learn
"Let God Arise"
Autoscroll
slow
fast
+/-
esc
set tempo
stop
Difficulty
novice
G|------------------||------------------|
D|------------------||------------------| 2x
A|000-2-222---------||000-2-222---------|
E|-----------00-2-44||-----------00-2-44|

G|------------------||------------------|
D|------------------||------------------| 2x
A|000-2~~~~~~~~-----||000-2~~~~~~~~-----|
E|------------------||------------------|
"come and see what he's done for us"
G|------------------||------------------||------------------|
D|------------------||------------------||------------------| 
A|------------------||------------------||------------------|
E|4~~~~5-7-2~~~5-7~~||0~~~--4~~~--2~~~--||0~~~--4~~~--2~~~--|

G|--------------------------------|
D|--------------------------------|X2
A|0002222222222222-00022222222222-|
E|--------------------------------|

G|------------------||------------------|
D|------------------||------------------| 2x
A|000-2-222---------||000-2-222---------|
E|-----------00-2-44||-----------00-2-44|

G|------------------||------------------|
D|------------------||------------------| 2x
A|000-2~~~~~~~~-----||000-2~~~~~~~~-----|
E|------------------||------------------|

G|------------------||---------------------||--------------------|
D|------------------||---------------------||--------------------| 
A|------------------||---------------------||--------------------|
E|4~~~~5-7-2~~~5-7~~||000--444--222--2-222-||000--444--222-2-222-|

G|--------------------------------|
D|--------------------------------|X3
A|0002222222222222-00022222222222-|
E|--------------------------------|

G|------------------|  |---------------------|
D|------------------|2x|---------------------|4x 
A|------------------|  |---------------------|
E|0~~~--4~~~--2~~~--|  |000--444--222--2-222-|

G|--------------------------------|  |------------------|  |------------|
D|--------------------------------|X3|------------------|x4|------------|
A|0002222222222222-00022222222222-|  |000-2-222---------|  |-2~~~~~~~~~~|
E|--------------------------------|  |-----------00-2-44|  |------------|
comments
We did not receive enough feedback on this tab! Please rate:
print report bad tab
1 2 3 4 5
1 comment total.
0 reply
Blu_Persuasion wrote on January 26 2013, 10:54 pm

Thank you for doing this tab :) There isn't much material for learning the bass for this song online so this is great :) After playing around with your tab, I only ended up changing one note from the pre-chorus and am playing around with the rhythm. Thanks again & God bless!

I want to post or [tab]
guest
You may want to rate the tab now too:
select rating
Please do not post tabs as comments. Select "correction" instead!