Oops, an error
Loading. Please wait.

Marvelous Light Tab

3,284 views 1 this week
no commentswrite comment
1 2 3 4 5
please rate
add to favorites
launch autoscroll
font size
0
reset
how to read this tab
guitar tuner
Tab Pro tools
  • play this tab
  • loop segment
  • change instrument
  • show fretboard
  • metronome
×
Best way to learn
"Marvelous Light"
Autoscroll
slow
fast
+/-
esc
set tempo
stop
Contributor
Difficulty
intermediate
Marvelous Light
Chris Tomlin
Tabbed by: Daniel “pastor of muppets” Huber
Note: this is how I play the song at my church, compare this with the Chris Tomlin 
(ver 2)
Settings:
-Metallica distortion (any extreme distortion will do)
-Crybaby wah (I add short solos at end of some riffs)

Verse riff
E------------------------------------------------------------------|
B------------------------------------------------------------------|
G----------------------------------5-5-5-5-5-5-5-5-5-5-5-5-5-5-5-5-|
D-5-5-5-5-5-5-5-5-5-5-5-5-5-5-5-5--5-5-5-5-5-5-5-5-5-5-5-5-5-5-5-5-|   (4x)
A-5-5-5-5-5-5-5-5-5-5-5-5-5-5-5-5--3-3-3-3-3-3-3-3-3-3-3-3-3-3-3-3-|
E-3-3-3-3-3-3-3-3-3-3-3-3-3-3-3-3----------------------------------|
          G5                          C5
Note: Mute with palm


Prechorus riff
E---------------------------------------------|
B---------------------------------------------|
G--------------7--7--7-7---5--5--5-----5----5-|
D-2---2---2-2--7--7--7-7---5--5--5-----5----5-|
A-2---2---2-2--5--5--5-5---3--3--3-----3----3-|
E-0-X-0-X-0-0---X---X--------X--X--X-X--X-X---|
      E5           D5               C5
before "victoriously" on C5 strum four times then mute


Chorus riff, riff, and tag

E------------------------------------------|
B------------------------------------------|
G------------------------5--5---5----5---5-|
D-5---5---5-----5-----5--5--5---5----5---5-|
A-5---5---5-----5-----5--3--3---3----3---3-|
E-3-X-3-X-3-X-X-3-X-X-3----X--X--X-X--X-X--|
          G5                     C5
E--------------------------------------------|
B--------------------------------------------|
G--------------7--7--7-7---5--5--5----5----5-|
D-2---2---2-2--7--7--7-7---5--5--5----5----5-|
A-2---2---2-2--5--5--5-5---3--3--3----3----3-|
E-0-X-0-X-0-0---X--X---------X--X--X-X--X-X--|
    E5             D5               C5
Note: If you don’t get how to play this either try listening to the song and play it or 
it is too hard then either come up with a different pattern or just strum once and let vibrate.

I play small solos were the C5 is usually in the key of E (almost any scale with E will 
like the e blue scale)
comments
We did not receive enough feedback on this tab! Please rate:
print report bad tab
1 2 3 4 5
I want to post or [tab]
guest
You may want to rate the tab now too:
select rating
Please do not post tabs as comments. Select "correction" instead!