Oops, an error
Loading. Please wait.

Our God Is Greater Bass Tab

version 1
version 1

Whole song

Interactive

32,129 views 48 this week
no commentswrite comment
1 2 3 4 5
accurate
x 6
add to favorites
launch autoscroll
font size
0
reset
guitar tuner
Autoscroll
slow
fast
+/-
esc
set tempo
stop
Help us to improve Ultimate-Guitar.com Take our survey!
×
Author
Difficulty
novice
Bass enters between “none like you” and “Into the darkness”

Verse
G|---------------------------------------------------------------|
D|---------------------------------------------------------------|
A|-----5-0-----5-0----2------------------------------------------|
E|---2-------5----------0----------------------------------------|
Single Notes, hold

Chorus
G|---------------------------------------------------------------|
D|---------------------------------------------------------------|
A|-----5-0-------5-0---------------------------------------------|
E|---2-----4---2------0------------------------------------------|
Single Notes, hold

Instrumental
G|---------------------------------------------------------------|
D|---------------------------------------------------------------|
A|-----5-0-------------------------------------------------------|
E|---2-----------------------------------------------------------|
Double Hits, hold three counts

Verse
G|---------------------------------------------------------------|
D|--- (Two twos, not twenty-two) --------------------------------|
A|------5-0------5-0---22-2--------------------------------------|
E|---22-------22------------00-0---------------------------------|

Chorus
G|---------------------------------------------------------------|
D|---------------------------------------------------------------|
A|-----5-0-------5-0-------5-0-------5-0-------------------------|
E|---2-----4---2-----0---2-----4---2-----0-----------------------|
Hit each note twice, pause, then again

Instrumental
G|-------------------------------------------------------------------|
D|-------------------------------------------------------------------|
A|-----5-0--------5-0-------5-0--------5-0---------------------------|
E|---2-----4----2-----0---2-----4----2-----0-------------------------|
Driving (8 strums each)

Inst. Peak
G|---------------------------------------------------------------|
D|---------------------------------------------------------------|
A|-----5-4-7-----5-4-7-------------------------------------------|
E|---2---------2-------------------------------------------------|
Strum each note 7 times, pausing between notes






Instrumental
G|---------------------------------------------------------------|
D|---------------------------------------------------------------|
A|------5-0-------5-0-------5-0-------5-0-------5-0-------5-0----|
E|----2-----4---2-----0---2-----4---2-----0---2-----4---2-----0--|
Driving (8 strums each)

Inst. Peak
G|---------------------------------------------------------------|
D|---------------------------------------------------------------|
A|-----5-4-7-----5-4-7-------------------------------------------|
E|---2---------2-------------------------------------------------|
Strum each note 7 times, pausing between note. Hold last note
Suggest correction
comments
print report bad tab
guest
You may want to rate the tab now too:
select rating
Please do not post tabs as comments. Select "correction" instead!