Oops, an error
Loading. Please wait.

Our God Is Greater Tab

version 1
version 1
214,256 views 156 this week
7 commentsread comments
1 2 3 4 5
excellent!
x 33
add to favorites
launch autoscroll
font size
0
reset
how to read this tab
guitar tuner
Autoscroll
slow
fast
+/-
esc
set tempo
stop
Help us to improve Ultimate-Guitar.com Take our survey!
×
Capo
4th fret
Our God is Greater- song by Chris Tomlin

Tabbed from the Passion 2010 Awakening CD.

        I'm pretty sure most of this is right. It's split into two sections one 
for each guitar part.
 If you need to you can probably get by just fine
dropping either one if you don't have enough guitar players. I take no credit for figuing out
 the delay guitar intro as that credit goes to a friend.

This is in Abm, I think. (The rythmn guitar starts on an Abm chord.)
If that means nothing to you;
These parts should work for if your rythmn guitar is capo 4 and starts on Em.

        Alternating guitar part.        

[Intro/Verse]

(Note: I believe that the guitar starts off clean w/ reverb and a little delay
and then takes on a slight overdrive after the first chorus.

Also, during the bridge a varation of this is played. 
I believe that it's the same fingering except both
notes are played at once. The rythmn changes during the bridge,
but just follow the rythmn guitar)
        

e|---------|---------|---------|---------|
B|4-4-4-4--|5-5-5-5--|4-4-4-4--|2-2-2-2--| 
G|-4-4-4-4-|-4-4-4-4-|-4-4-4-4-|-4-4-4-4-|
D|---------|---------|---------|---------|
A|---------|---------|---------|---------|
E|---------|---------|---------|---------|


[Chorus]

e|---------|---------|---------|---------|
B|4-4-5-5--|4-4-4-4--|4-4-5-5--|4-4-4-4--|
G|-4-4-4-4-|-4-4-4-4-|-4-4-4-4-|-4-4-4-4-|
D|---------|---------|---------|---------|
A|---------|---------|---------|---------|
E|---------|---------|---------|---------|

e|---------|---------|2-2-2-2--|2--------|
B|2-2-2-2--|2-2-2-2--|---------|---------|
G|-4-4-4-4-|-4-4-4-4-|-4-4-4-4-|---------|
D|---------|---------|---------|---------|
A|---------|---------|---------|---------|
E|---------|---------|---------|---------|

        Delay guitar part (w/distortion?)
        
        Uses lots of reverb and I believe dotted quarter note delay.
        I didn't include them in the tab, but also use lots of slides.
        

[Instrumental]

Note: Those are 12's,16's,14's etc. 
There are no 1's mixed in on this tab.

e|-----------------------|----------------------|
B|12-12-12-12-12-12-12-12|9--9--9--9--9--9--9--9| As far as I can tell it 
G|-----------------------|----------------------| goes down to 9
D|-----------------------|----------------------| this one time.
A|-----------------------|----------------------|
E|-----------------------|----------------------|

e|-----------------------|-----------------------|
B|16-16-16-16-16-16-16-16|14-14-14-14-14-14-14-14|
G|-----------------------|-----------------------|
D|-----------------------|-----------------------|
A|-----------------------|-----------------------|
E|-----------------------|-----------------------|

e|-----------------------|-----------------------|
B|12-12-12-12-12-12-12-12|17-17-17-17-17-17-17-17|
G|-----------------------|-----------------------|
D|-----------------------|-----------------------|
A|-----------------------|-----------------------|
E|-----------------------|-----------------------|

e|-----------------------|-----------------------|
B|16-16-16-16-16-16-16-16|14-14-14-14-14-14-14-14|
G|-----------------------|-----------------------|
D|-----------------------|-----------------------|
A|-----------------------|-----------------------|
E|-----------------------|-----------------------|


[Verse]

e|-----------------------|-----------------------|
B|12-12-12-12-17-17-17-17|16-16-16-16-16-16-16-16|
G|-----------------------|-----------------------|
D|-----------------------|-----------------------|
A|-----------------------|-----------------------|
E|-----------------------|-----------------------|

e|-----------------------|-----------------------|
B|12-12-12-12-17-17-17-17|16-16-16-16-16-16-16-16|
G|-----------------------|-----------------------|
D|-----------------------|-----------------------|
A|-----------------------|-----------------------|
E|-----------------------|-----------------------|

e|-----------------------|-----------------------|
B|14-14-14-14-14-14-14-14|14-14-14-14-14-14-14-14|
G|-----------------------|-----------------------|
D|-----------------------|-----------------------|
A|-----------------------|-----------------------|
E|-----------------------|-----------------------|

e|14----14----14----14---|14---------------------|
B|---14----14----14----14|-----------------------|
G|-----------------------|-----------------------|
D|-----------------------|-----------------------|
A|-----------------------|-----------------------|
E|-----------------------|-----------------------|


[Chorus]

e|-----------------------|-----------------------|
B|12-12-12-12-12-12-12-12|17-17-17-17-17-17-17-17|
G|-----------------------|-----------------------|
D|-----------------------|-----------------------|
A|-----------------------|-----------------------|
E|-----------------------|-----------------------|

e|-----------------------|-----------------------|
B|16-16-16-16-16-16-16-16|14-14-14-14-14-14-14-14|
G|-----------------------|-----------------------|
D|-----------------------|-----------------------|
A|-----------------------|-----------------------|
E|-----------------------|-----------------------|


[Bridge]

(Same as chorus but follow the rythmn guitar)
Suggest correction new What's this?
You can suggest a correction to this tab. Community and Mods will review your correction and vote to approve or reject it.
comments
print report bad tab
7 comments total. Showing first comments.
+1 reply
cmwishart 63 wrote on May 5 2010, 09:41 pm

You are my favorite person on the internet right now. I had the intro and chorus figured out, but the verse was baffling me and I really needed it to play at my school. Thanks.

-1 reply
General Dripik 82 wrote on November 19 2010, 11:02 pm

Awesome :)
Only thing is the intro should go like this
e|---------|---------|---------|---------|
B|4-4-4-4--|5-5-5-5--|4-4-4-4--|2-2-2-2--|
G|-4-4-4-4-|-4-4-4-4-|-4-4-4-4-|-3-3-3-3-|
D|---------|---------|---------|---------|
A|---------|---------|---------|---------|
E|---------|---------|---------|---------|

0 reply
jrlaskowski 93 wrote on December 3 2010, 08:18 am

It's in key of B. The chords would be Em, C, G and D, these being in key of G, but Chris Tomlin plays with on Capo 4, taking it from Em, C, G, and D, to G#m (or Abm), E, B, and F#. Other than that, good work! Thanks for the tab-- playing it Sunday for our youth band.
God Bless

guest
You may want to rate the tab now too:
select rating
Please do not post tabs as comments. Select "correction" instead!