Oops, an error
Loading. Please wait.

Our God Is Greater Bass Tab

version 2
version 2

Whole song

Interactive

6,330 views 3 this week
no commentswrite comment
1 2 3 4 5
please rate
add to favorites
launch autoscroll
font size
0
reset
guitar tuner
Autoscroll
slow
fast
+/-
esc
set tempo
stop
Help us to improve Ultimate-Guitar.com Take our survey!
×
Tuning
D A D G B E
Our God – Bass – Key of A – Drop D tuning

Each dash (-) in the tab represents an 1/8 note. all notes are connected except in INST. 2

Intro – Rest
Verse 1 - Rest

Verse 2
G|----------------------------------------------------------------|
d|4---0-----------4---0---------------------------2---------------|
A|--------0---------------0-------2-------------------------------|
D|----------------------------------------------------------------|


Chorus1.1
G|----------------2-------------------------------2---------------|
d|4-------0---------------2-------4-------0---------------2-------|
A|----------------------------------------------------------------|
D|----------------------------------------------------------------|

Interlude
G|----------------------------------------------------------------|
d|44------00--------------22--------------------------------------|
A|----------------00----------------------------------------------|
D|----------------------------------------------------------------|


Chorus1.2
G|----------------22---2--------------------------22---2----------|
d|44---4--00---0----------22---2--44---4--00---0----------22---2--|
A|----------------------------------------------------------------|
D|----------------------------------------------------------------|

Instrumental/Bridge
G|----------------------------------------------------------------|
d|4444444400000000--------222222224444444400000000--------22222222|
A|----------------00000000------------------------00000000--------|
D|----------------------------------------------------------------|

Inst. 2
G|----------------------------------------------------------------|
D|-4444444-0000000---------2222222-4444444-0000000---------2222222|
A|-----------------4444444-------------------------4444444--------|
D|----------------------------------------------------------------|


Chorus2
G|------------------2---2---------------------------2---2---------|
d|--4---4---0---0-----------2---2---4---4---0---0-----------2---2-|
A|----------------00-2-2--------------------------00-0-0----------|
D|44-4-4--00-0-0----------22-2-2--44-4-4--00-0-0----------22-2-2--|

Bridge2
G|------------------2---2--------------------7---7-----------------|
d|--4---4---0---0-----------6---6----4---4-----------------22222222|
A|----------------00-0-0-------------------77-7-7--00000000--------|
D|44-4-4--00-0-0----------66-6-6--44--4-4--------------------------|

Outro (slow chorus)

G|----------------2-------------------------------2---------------|
d|4-------0---------------2-------4-------0---------------2-------|
A|----------------------------------------------------------------|
D|----------------------------------------------------------------|

Order: 
Int, V1, V2, Ch1.1, Interlude, V2, Ch1.2, Inst/Bridge (3x), Inst.2, Ch. 2, Bridge 
2, Inst.2, Outro (2x)
comments
We did not receive enough feedback on this tab! Please rate:
print report bad tab
1 2 3 4 5
I want to post or [tab]
guest
You may want to rate the tab now too:
select rating
Please do not post tabs as comments. Select "correction" instead!