Oops, an error
Loading. Please wait.

Our God Is Greater Tab

version 4
version 4
4,759 views 6 this week
no commentswrite comment
1 2 3 4 5
please rate
add to favorites
launch autoscroll
font size
0
reset
how to read this tab
guitar tuner
Autoscroll
slow
fast
+/-
esc
set tempo
stop
Help us to improve Ultimate-Guitar.com Take our survey!
×
Author
Difficulty
Capo
novice
4th fret
Our God - Chris Tomlin
CAPO 4 - G (tab relevant to capo)

Intro
E|---------------------------------|
B|-8 8 8 8 8 8 8 8-\\ 5 5----------|
G|---------------------------------|
D|---------------------------------|
A|---------------------------------|
E|---------------------------------|

E|---------------------------------
B|-5 5 5 5 5 5 / 12 12 12 12 12 12-
G|---------------------------------|
D|---------------------------------|
A|---------------------------------|
E|---------------------------------|

E|----------------------------------|
B|-12 12-\\-10-10-10-10-10-10-10-10-|
G|----------------------------------|
D|----------------------------------|
A|----------------------------------|
E|----------------------------------|

E|-----------------------------------|
B|-8-8-8-8-8-8-8-8-------------------|
G|-----------------------------------|
D|-----------------------------------|
A|-----------------------------------|
E|-----------------------------------|

E|------------------------------------|
B|-13-13-13-13-13-13-13-13------------|
G|------------------------------------|
D|------------------------------------|
A|------------------------------------|
E|------------------------------------|

E|----------------------------------------------------|
B|-12-12-12-12-12-12-12-12-\\-10-10-10-10-10-10-10-10-|
G|----------------------------------------------------|
D|----------------------------------------------------|
A|----------------------------------------------------|
E|----------------------------------------------------|




Verse
E|----------------------------------|
B|-0--0---1---1---0---0---0---0---0-|
G|---0--0---0---0---0---0---0---0---|
D|----------------------------------|
A|----------------------------------|
E|----------------------------------|

-------------------------------|
---0---1---1---0---0---0---0---|
-0---0---0---0---0---0---0---0-|
-------------------------------|
-------------------------------|
-------------------------------|

E|----------------------------------------------------|
B|----------------------------------3---3---3---3---3-|
G|-2-0-2-0-2-0-2-0-2-0-2-0-2-0-2-0----0---0---0---0---|
D|----------------------------------------------------|
A|----------------------------------------------------|
E|----------------------------------------------------|


Chorus 1
E|------------------------------------------|
B|-0-0-0-0-1-1-1-1-0-0-0-0-3-3-3-3----------|
G|--0-0-0-0-0-0-0-0-0-0-0-0-0-0-0-0----(X2)-|
D|------------------------------------------|
A|------------------------------------------|
E|------------------------------------------|


Bridge
E|--------------------------|
B|-8-8-8-8-8-8-8-8----------|
G|--------------------------|
D|--------------------------|
A|--------------------------|
E|--------------------------|

E|-------------------------------------|
B|--13-13-13-13-13-13-13-13-12-12-12---|
G|-------------------------------------|
D|-------------------------------------|
A|-------------------------------------|
E|-------------------------------------|

E|---------------------------------------------|
B|-12-12-12-12-12-10-10-10-10-10-10-10-10------|
G|---------------------------------------------|
D|----------------------------------------(X4)-|
A|---------------------------------------------|
E|---------------------------------------------|


Interlude and Chorus 2
E|----------------------------------------|
B|----------------------------------------|
G|------------5555555-----------7777777---|
D|---2222222--5555555--5555555--7777777---|
A|---2222222--3333333--5555555--5555555---|
E|---0000000-----------3333333------------|
Suggest correction
What's this?
You can suggest a correction to this tab. Community and Mods will review your correction and vote to approve or reject it.
comments
We did not receive enough feedback on this tab! Please rate:
print report bad tab
1 2 3 4 5
guest
You may want to rate the tab now too:
select rating
Please do not post tabs as comments. Select "correction" instead!