Oops, an error
Loading. Please wait.

Our God Is Greater Tab

version 5
version 5
10,681 views 33 this week
no commentswrite comment
1 2 3 4 5
please rate
add to favorites
launch autoscroll
font size
0
reset
how to read this tab
guitar tuner
Autoscroll
slow
fast
+/-
esc
set tempo
stop
Help us to improve Ultimate-Guitar.com Take our survey!
×
Author
Difficulty
novice
This is a mixed tab for lead and the rhythm guitar.
This is best to play with the song rather than live but it will work as both.
This is probably perfect and sounds just like the song.

Right here just have delay on.
Intro
e|---------|---------|---------|---------|
B|4-4-4-4--|5-5-5-5--|4-4-4-4--|2-2-2-2--|
G|-4-4-4-4-|-4-4-4-4-|-4-4-4-4-|-4-4-4-4-| play this 2x
D|---------|---------|---------|---------|
A|---------|---------|---------|---------|
E|---------|---------|---------|---------|

First verse
e|---------|---------|---------|---------|
B|4-4-5-5--|4-4-4-4--|4-4-5-5--|4-4-4-4--|
G|-4-4-4-4-|-4-4-4-4-|-4-4-4-4-|-4-4-4-4-|
D|---------|---------|---------|---------|
A|---------|---------|---------|---------|
E|---------|---------|---------|---------|

e|---------|---------|-----------|
B|4-4-5-5--|4-4-4-4--|2-2-2-2----|
G|-4-4-4-4-|-4-4-4-4-|-4-4-4-4---|
D|---------|---------|-----------|
A|---------|---------|-----------|
E|---------|---------|-----------|
 Pause and then play this same thing again
Turn on light distortion right here
First chorus
e|-----------------------|----------------------|
B|12-12-12-12-12-12-12-12|9--9--9--9--9--9--9--9|
G|-----------------------|----------------------|
D|-----------------------|----------------------|
A|-----------------------|----------------------|
E|-----------------------|----------------------|

e|-----------------------|-----------------------|
B|17-17-17-17-17-17-17-17|16-16-16-16-16-16-16-16|
G|-----------------------|-----------------------|
D|-----------------------|-----------------------|
A|-----------------------|-----------------------|
E|-----------------------|-----------------------|

e|-----------------------|-----------------------|
B|14-14-14-14-14-14-14-14 12-12-12-12-12-12-12-12|
G|-----------------------|-----------------------|
D|-----------------------|-----------------------|
A|-----------------------|-----------------------|
E|-----------------------|-----------------------|

e|-----------------------|-----------------------|
B|17-17-17-17-17-17-17-17|16-16-16-16-16-16-16-16|
G|-----------------------|-----------------------|
D|-----------------------|-----------------------|
A|-----------------------|-----------------------|
E|-----------------------|-----------------------|

e|-----------------------|
B|14-14-14-14-14-14-14-14|
G|-----------------------|
D|-----------------------|
A|-----------------------|
E|-----------------------| right above where it repeats, play that part one more time 
then the second verse

2nd verse
the second verse is the same as the first except there is no pause and repeat just play 
it once.

2nd chorus
Play the 2nd part of the above chorus 4 times and then:
Turn distortion higher and play it 2 more times harder and louder

Bridge
Play these chords lightly while he is singing the bridge part but still with distortion on.
e|-x------x-----x------x--------|
B|-x------x-----x------x--------|
G|-x------9-----x------x--------|
D|-6—x8---9—x8--9—x8---4—x8-----|
A|-6------7-----9------4--------|
E|-4------x-----7------2--------|

The part after the bridge: just strum the same above chords as hard as you can but make 
sure to mute the strings or you can’t here anything

Play the 2nd chorus the same way and number of times as above
And then do the bridge again the same way as above

If you are having problems doing this, try listing to the song while following this or 
try playing this with the song.

I hope this helps and all praise to God!
Suggest correction
What's this?
You can suggest a correction to this tab. Community and Mods will review your correction and vote to approve or reject it.
comments
We did not receive enough feedback on this tab! Please rate:
print report bad tab
1 2 3 4 5
guest
You may want to rate the tab now too:
select rating
Please do not post tabs as comments. Select "correction" instead!