Oops, an error
Loading. Please wait.

Our God Is Greater Tab

version 8
version 8
7,565 views 21 this week
no commentswrite comment
1 2 3 4 5
accurate
x 3
add to favorites
launch autoscroll
font size
0
reset
how to read this tab
guitar tuner
Autoscroll
slow
fast
+/-
esc
set tempo
stop
Help us to improve Ultimate-Guitar.com Take our survey!
×
Author
-------------------------------------------------------------------------------
OUR GOD - Chris Tomlin
-------------------------------------------------------------------------------
Tabbed by: HarmonicDrone
Email: tabs@amplifydesign.com.au

Tuning: Standard


Keyboard Intro:
I just added this for those who dont have a pianist. Just add a verbzilla
or reverb, and use the neck pick-up.
e|---------------------------------------------------------------------------|
B|----7-------7-------7---4-5-4--------------7-------7-------7---4-5-4-------|
G|--4---4---4---4---4---4-------4~---------4---4---4---4---4---4-------6~----|
D|---------------------------------------------------------------------------|
A|---------------------------------------------------------------------------|
E|---------------------------------------------------------------------------|

Intro:

Use minor distortion with dotted eighth delay and reverb.
Slide between notes.
e|--7-7-7-7-7-7-7-7-4-4-4-4-4-4-4-4-11-11-11-11-11-11-11-11-9-9-9-9-9-9-9-9--|
B|---------------------------------------------------------------------------|
G|---------------------------------------------------------------------------|
D|---------------------------------------------------------------------------|
A|---------------------------------------------------------------------------|
E|---------------------------------------------------------------------------|

Verse:

Use minor distortion with dotted eighth delay and reverb.
"Water you turned into wine..."
e|--11-11-11-11-12-12-12-12-11-11-11-11-11-11-11-11----(x2)------------------|
B|---------------------------------------------------------------------------|
G|---------------------------------------------------------------------------|
D|---------------------------------------------------------------------------|
A|---------------------------------------------------------------------------|
E|---------------------------------------------------------------------------|
then...
e|--9-9-9-9-9-9-9-9-9-9-9-9-9-9-9-9-14--14--14--14---------------------------|
B|------------------------------------12--12--12--12-11~---------------------|
G|---------------------------------------------------------------------------|
D|---------------------------------------------------------------------------|
A|---------------------------------------------------------------------------|
E|---------------------------------------------------------------------------|

Chorus and Solo:
G#m E B B/Bb

Play each note 8 times.
Use minor distortion with dotted eighth delay and reverb.
"Our God is greater..."
e|--7--12--11--9-------------------------------------------------------------|
B|---------------------------------------------------------------------------|
G|---------------------------------------------------------------------------|
D|---------------------------------------------------------------------------|
A|---------------------------------------------------------------------------|
E|---------------------------------------------------------------------------|


************************************

| /   slide up
| \   slide down
| h   hammer-on
| p   pull-off
| ~   vibrato
| +   harmonic
| x   Mute note
| b   Bend
| pb  Pre-bend
| br  Bend release
| pbr Pre-bend release
| brb Bend release bend

************************************
Suggest correction
What's this?
You can suggest a correction to this tab. Community and Mods will review your correction and vote to approve or reject it.
comments
We did not receive enough feedback on this tab! Please rate:
print report bad tab
1 2 3 4 5
guest
You may want to rate the tab now too:
select rating
Please do not post tabs as comments. Select "correction" instead!