Oops, an error
Loading. Please wait.

Our God tab

version 11
version 11
154 views 3 this week
no commentswrite comment
1 2 3 4 5
2 more votes to show rating
add to favorites
×
Save as Personal and add changes to this tab that will be seen only by you. Learn more ›
×
You can save this tab as Personal to edit and correct it or add notes. All changes will be seen only by you. Learn more »
launch autoscroll
font size
0
reset
how to read this tab
guitar tuner
edit
Autoscroll
slow
fast
+/-
esc
set tempo
stop
[Intro]
e|----------------------------------------------------------------------------------|
B|--2----2----2----2----3----3----3----3----2----2----2----2----0----0----0----0----|
G|----2----2----2----2----2----2----2----2----2----2----2----2----2----2----2----2--|
D|----------------------------------------------------------------------------------|
A|----------------------------------------------------------------------------------|
E|----------------------------------------------------------------------------------|

[Verse 1]
e|----------------------------------------------------------------------------------|
B|--2----2----3----3----2----2----2----2----2----2----3----3----2----2----2----2----|
G|----2----2----2----2----2----2----2----2----2----2----2----2----2----2----2----2--|
D|----------------------------------------------------------------------------------|
A|----------------------------------------------------------------------------------|
E|----------------------------------------------------------------------------------|

Water you turned into wine, opened the eyes of the blind

e|------------------------------------------0----0----0----0----0-------------------|
B|--0----0----0----0----0----0----0----0--------------------------------------------|
G|----2----2----2----2----2----2----2----2----2----2----2----2----------------------|
D|----------------------------------------------------------------------------------|
A|----------------------------------------------------------------------------------|
E|----------------------------------------------------------------------------------|

there's no one like You, none like You

e|----------------------------------------------------------------------------------|
B|--2----2----3----3----2----2----2----2----2----2----3----3----2----2----2----2----|
G|----2----2----2----2----2----2----2----2----2----2----2----2----2----2----2----2--|
D|----------------------------------------------------------------------------------|
A|----------------------------------------------------------------------------------|
E|----------------------------------------------------------------------------------|

Into the darkness You shine, out of the ashes we rise 

e|------------------------------------------0----0----0----0----0-------------------|
B|--0----0----0----0----0----0----0----0--------------------------------------------|
G|----2----2----2----2----2----2----2----2----2----2----2----2----------------------|
D|----------------------------------------------------------------------------------|
A|----------------------------------------------------------------------------------|
E|----------------------------------------------------------------------------------|

there's no one like You, none like You

[Chorus]
F#m
Our God is greater 
D
Our God is stronger
A                       E
God You are higher than any other
F#m
Our God is healer 
D
Awesome in power
     A        E   
Our God, our God

[Verse 2]
e|----------------------------------------------------------------------------------|
B|--2----2----3----3----2----2----2----2----2----2----3----3----2----2----2----2----|
G|----2----2----2----2----2----2----2----2----2----2----2----2----2----2----2----2--|
D|----------------------------------------------------------------------------------|
A|----------------------------------------------------------------------------------|
E|----------------------------------------------------------------------------------|

Into the darkness You shine, out of the ashes we rise 

e|------------------------------------------0----0----0----0----0-------------------|
B|--0----0----0----0----0----0----0----0--------------------------------------------|
G|----2----2----2----2----2----2----2----2----2----2----2----2----------------------|
D|----------------------------------------------------------------------------------|
A|----------------------------------------------------------------------------------|
E|----------------------------------------------------------------------------------|

there's no one like You, none like You

[Chorus]
F#m
Our God is greater 
D
Our God is stronger
A                       E
God You are higher than any other
F#m
Our God is healer 
D
Awesome in power
     A        E   
Our God, our God

[Bridge] 
(strumming u-d-u-d-u-d-u)
F#m
And if our God is for us
D
Than who could ever stop us
A 
And if our God is with us
E
Than what could stand against?
F#m
And if our God is for us
D
Than who could ever stop us
A 
And if our God is with us
E
Than what could stand against?

[Outro]
F#m D A 
E
Than what could stand against?
F#m D A

            
            
Suggest correction
Creating personal tab
Creating personal tab
You can edit any tab online and save it as your Personal.

You can edit, replace or remove any tab part or add personal notes – all changes will be seen only by you.

Personal tabs can be accessed anytime from any device, even offline.
Learn more »
Give kudos to tab author, rate the tab!
1 2 3 4 5
comments
print report bad tab
guest
You may want to rate the tab now too:
select rating
Wanna post a correction for this tab? Suggest correction