Oops, an error
Loading. Please wait.

Our God Tab

version 12
873 views 78 this week
no commentswrite comment
1 2 3 4 5
3 more votes to show rating
add to favorites
launch autoscroll
font size
0
reset
how to read this tab
guitar tuner
Autoscroll
slow
fast
+/-
esc
set tempo
stop
Help us to improve Ultimate-Guitar.com Take our survey!
×
Author
Difficulty
intermediate
-------------------------------------------------------------------------------
                             Our God- Chris Tomlin
-------------------------------------------------------------------------------
Lead Guitar 2
Tuning:EADGBE(Standard)
Time is 4/4
I'm giving the sections just one time. You will have to jump back and forth based on how you're playing.

Intro-
e|----------|----------|----------|----------|
B|-4-4-4-4--|-5-5-5-5--|-4-4-4-4--|-2-2-2-2--|
G|--4-4-4-4-|--4-4-4-4-|--4-4-4-4-|--4-4-4-4-| X2
D|----------|----------|----------|----------|
A|----------|----------|----------|----------|
E|----------|----------|----------|----------|

Verse(s)-
e|----------|----------|----------|----------|
B|-4-4-5-5--|-4-4-4-4--|-4-4-5-5--|-4-4-4-4--|
G|--4-4-4-4-|--4-4-4-4-|--4-4-4-4-|--4-4-4-4-|
D|----------|----------|----------|----------|
A|----------|----------|----------|----------|
E|----------|----------|----------|----------|

e|----------|----------|-2-2-2-2--|----------|
B|-2-2-2-2--|-2-2-2-2--|----------|-2--------|
G|--4-4-4-4-|--4-4-4-4-|--4-4-4-4-|-4--------| X2 
D|----------|----------|----------|----------|
A|----------|----------|----------|----------|
E|----------|----------|----------|----------|   

Chorus-
e|----------|----------|----------|----------|
B|-4-4-4-4--|-5-5-5-5--|-4-4-4-4--|-2-2-2-2--|
G|--4-4-4-4-|--4-4-4-4-|--4-4-4-4-|--4-4-4-4-| X2
D|----------|----------|----------|----------|
A|----------|----------|----------|----------|
E|----------|----------|----------|----------|

Break-
e|----------|----------|----------|----------|
B|-4-4-4-4--|-5-5-5-5--|-4-4-4-4--|-2-2-2-2--|
G|--4-4-4-4-|--4-4-4-4-|--4-4-4-4-|--4-4-4-4-| X4
D|----------|----------|----------|----------|
A|----------|----------|----------|----------|
E|----------|----------|----------|----------|

Bridge-
e|-77777777-|----------|----------|----------|
B|-99999999-|-55555555-|-44444444-|-77777777-|
G|-88888888-|-44444444-|-44444444-|-66666666-| X2
D|-66666666-|-22222222-|-44444444-|-44444444-|
A|----------|----------|-22222222-|----------|
E|----------|----------|----------|----------|

Bridge Breakdown- (eighth notes at the beginning of each measure 
e|--7777777-|----------|----------|----------|
B|--9999999-|--5555555-|--4444444-|--7777777-|
G|--8888888-|--4444444-|--4444444-|--6666666-| X2
D|--6666666-|--2222222-|--4444444-|--4444444-|
A|----------|----------|--2222222-|----------|
E|----------|----------|----------|----------|

Last Chorus/ Optional Chorus
  p.m
e|-77777777-|----------|----------|----------|
B|-99999999-|-55555555-|-44444444-|-77777777-|
G|-88888888-|-44444444-|-44444444-|-66666666-| X2
D|-66666666-|-22222222-|-44444444-|-44444444-|
A|----------|----------|-22222222-|----------|
E|----------|----------|----------|----------|


************************************

| /   slide up
| \   slide down
| h   hammer-on
| p   pull-off
| ~   vibrato
| +   harmonic
| x   Mute note
| b   Bend
| pb  Pre-bend
| br  Bend release
| pbr Pre-bend release
| brb Bend release bend

************************************
Suggest correction
Give kudos to tab author, rate the tab!
1 2 3 4 5
comments
print report bad tab
guest
You may want to rate the tab now too:
select rating
Wanna post a correction for this tab? Suggest correction