Oops, an error
Loading. Please wait.

Sing Sing Sing Tab

version 1
version 1

Whole song

Interactive

44,442 views 39 this week
no commentswrite comment
1 2 3 4 5
accurate
x 9
add to favorites
launch autoscroll
font size
0
reset
how to read this tab
guitar tuner
Tab Pro tools
  • play this tab
  • loop segment
  • change instrument
  • show fretboard
  • metronome
Autoscroll
slow
fast
+/-
esc
set tempo
stop
Contributor
Difficulty
Hey guys! This is my first time writing a tab! I hope you guys like it and use 
this tab to Praise and Worship God Alone!!! Praise The Lord!! 
                                                  -Peter C-
Sing Sing Sing
Chris Tomlin


INTRO
E|--------12----------------12-------------12------------11---11-------|
B|--12-12----12------12-12-----12----12-12----12------12----12---------|
G|-9--9--9--9-------9--9---9--9-----9--9--9--9-------9--9--9-----------|
D|---------------------------------------------------------------------|
A|---------------------------------------------------------------------|
e|---------------------------------------------------------------------|


BODY

What's not to love about you? Heaven and Earth adore you!
E|---------------------------------------------------------------------|
B|---------------------------------------------------------------------|
G|---------------------------------------------------------------------|
D|---------------------------------------------------------------------|
A|-11-11-11-11-9--11-9--11---(x4)--------------------------------------|
e|-0--0--0--0--0--0--0--0----(x4)--------------------------------------|


Kings and kingdoms bow down. Son of God, you are the one.
E|---------------------------------------------------------------------|
B|---------------------------------------------------------------------|
G|---------------------------------------------------------------------|
D|---------------------------------------------------------------------|
A|-11-11-11-11-9--11-9--11---(x4)--------------------------------------|
e|-9--9--9--9--9--9--9--9----(x4)--------------------------------------|


You are the One
E|---------------------------------------------------------------------|
B|---------------------------------------------------------------------|
G|---------------------------------------------------------------------|
D|---------------------------------------------------------------------|
A|-11-11-11-11-9--11-9--11---(x2)--------------------------------------|
e|-7--7--7--7--7--7--7--7----(x2)--------------------------------------|


We're living for
E|---------------------------------------------------------------------|
B|---------------------------------------------------------------------|
G|---------------------------------------------------------------------|
D|-6--6--6--6--4--6--4--6----------------------------------------------|
A|-0--0--0--0--0--0--0--0----(x2)--------------------------------------|
e|---------------------------(x2)--------------------------------------|


CHORUS

We will SING! SING! SING! And make music in the Heavens we will...
E|---------------------------------------------------------------------|
B|---------------------------------------------------------------------|
G|-9999-9999-9999-9999-9999-9999-9999-9999-----------------------------|
D|-9999-9999-9999-9999-9999-9999-9999-9999-----------------------------|
A|-7777-7777-7777-7777-7777-7777-7777-7777-----------------------------|
e|---------------------------------------------------------------------|


SING! SING! SING! grateful that you hear us when we...
E|---------------------------------------------------------------------|
B|---------------------------------------------------------------------|
G|-6666-6666-6666-6666-6666-6666-6666-6666-----------------------------|
D|-6666-6666-6666-6666-6666-6666-6666-6666-----------------------------|
A|-4444-4444-4444-4444-4444-4444-4444-4444-----------------------------|
e|---------------------------------------------------------------------|


Shout your name!
E|---------------------------------------------------------------------|
B|---------------------------------------------------------------------|
G|-4444-4444-4444-4444-------------------------------------------------|
D|-4444-4444-4444-4444-------------------------------------------------|
A|-2222-2222-2222-2222-------------------------------------------------|
e|---------------------------------------------------------------------|


Lift high the name...
E|---------------------------------------------------------------------|
B|---------------------------------------------------------------------|
G|-2222-2222-2222-2222-------------------------------------------------|
D|-2222-2222-2222-2222-------------------------------------------------|
A|---------------------------------------------------------------------|
e|---------------------------------------------------------------------|


Of Jesus!
E|---------------------------------------------------------------------|
B|---------------------------------------------------------------------|
G|-9999-9999-9999-9999-9999-9999-9999-9999-----------------------------|
D|-9999-9999-9999-9999-9999-9999-9999-9999-----------------------------|
A|-7777-7777-7777-7777-7777-7777-7777-7777-----------------------------|
e|---------------------------------------------------------------------|


INTERLUDE 1

~ = Bending semi tone

E|--0000--0000----0000--0000----0000--0000----0000--0000---------------|
B|--4~~~--4~~~----11~~--11~~----4~~~--4~~~----11~~--11~~---------------|
G|---------------------------------------------------------------------|
D|---------------------------------------------------------------------|
A|---------------------------------------------------------------------|
e|---------------------------------------------------------------------|


CHORUS 2

We will SING! SING! SING! And make...                                       
E|---------------------------------------------------------------------|
B|--12-12-12-12--12-12-12-12--9--9--9--10--10-10-10-10-----------------|
G|--9--9--9--9---9--9--9--9---9--9--9--9---9--9--9--9------------------|
D|---------------------------------------------------------------------|
A|---------------------------------------------------------------------|
e|---------------------------------------------------------------------|

Music in the Heavens we will...
E|---------------------------------------------------------------------|
B|--12-12-12-12--12-12-12-12--10-10-10-9---9-10--9--10-----------------|
G|--9--9--9--9---9--9--9--9---9--9--9--9---9--9--9--9------------------|
D|---------------------------------------------------------------------|
A|---------------------------------------------------------------------|
e|---------------------------------------------------------------------|

SING! SING! SING!                                                          
E|---------------------------------------------------------------------|
B|--12-12-12-12--12-12-12-12--9--9--9--10--10-10-10-10-----------------|
G|--9--9--9--9---9--9--9--9---9--9--9--9---9--9--9--9------------------|
D|---------------------------------------------------------------------|
A|---------------------------------------------------------------------|
e|---------------------------------------------------------------------|

Grateful that you hear us when we...
E|---------------------------------------------------------------------|
B|--12-12-12-12--12-12-12-12--10-10-10-9---9-10--9--10-----------------|
G|--9--9--9--9---9--9--9--9---9--9--9--9---9--9--9--9------------------|
D|---------------------------------------------------------------------|
A|---------------------------------------------------------------------|
e|---------------------------------------------------------------------|

Shout your name! Lift high the name! O Jesus! 
E|---------------------------------------------------------------------|
B|--7777-7977-7777-7977------------------------------------------------|
G|--9999-9999-9999-9999----9-9-9-9-9-11-9-9-9-9-9-9-9-11-9-9-----------|
D|---------------------------------------------------------------------|
A|---------------------------------------------------------------------|
e|---------------------------------------------------------------------|


INTERLUDE 2

~ = Bending semi tone

E|--000---000---0--0--0--0----000000-----------------------------------|
B|--11~---11~---10-9--10-9----11~~~~-----------------------------------|
G|---------------------------------------------------------------------|
D|---------------------------------------------------------------------|
A|---------------------------------------------------------------------|
e|---------------------------------------------------------------------|

E|--000---000---0--0--0--0----000000-----------------------------------|
B|--11~---11~---10-9--10-9----999999-----------------------------------|
G|---------------------------------------------------------------------|
D|---------------------------------------------------------------------|
A|---------------------------------------------------------------------|
e|---------------------------------------------------------------------|

E|--000---000---0--0--0--0----000000-----------------------------------|
B|--11~---11~---10-9--10-9----11~~~~-----------------------------------|
G|---------------------------------------------------------------------|
D|---------------------------------------------------------------------|
A|---------------------------------------------------------------------|
e|---------------------------------------------------------------------|

E|--000---000---000----000---000---000----00000000---------------------|
B|--11~---11~---11~----14~---14~---14~----16~~~~~~---------------------|
G|---------------------------------------------------------------------|
D|---------------------------------------------------------------------|
A|---------------------------------------------------------------------|
e|---------------------------------------------------------------------|


CHORUS

We will SING! SING! SING! And make music in the Heavens we will...
E|---------------------------------------------------------------------|
B|---------------------------------------------------------------------|
G|-9999-9999-9999-9999-9999-9999-9999-9999-----------------------------|
D|-9999-9999-9999-9999-9999-9999-9999-9999-----------------------------|
A|-7777-7777-7777-7777-7777-7777-7777-7777-----------------------------|
e|---------------------------------------------------------------------|


SING! SING! SING! grateful that you hear us when we...
E|---------------------------------------------------------------------|
B|---------------------------------------------------------------------|
G|-6666-6666-6666-6666-6666-6666-6666-6666-----------------------------|
D|-6666-6666-6666-6666-6666-6666-6666-6666-----------------------------|
A|-4444-4444-4444-4444-4444-4444-4444-4444-----------------------------|
e|---------------------------------------------------------------------|


Shout your name!
E|---------------------------------------------------------------------|
B|---------------------------------------------------------------------|
G|-4444-4444-4444-4444-------------------------------------------------|
D|-4444-4444-4444-4444-------------------------------------------------|
A|-2222-2222-2222-2222-------------------------------------------------|
e|---------------------------------------------------------------------|


Lift high the name...
E|---------------------------------------------------------------------|
B|---------------------------------------------------------------------|
G|-2222-2222-2222-2222-------------------------------------------------|
D|-2222-2222-2222-2222-------------------------------------------------|
A|---------------------------------------------------------------------|
e|---------------------------------------------------------------------|


Of Jesus!
E|---------------------------------------------------------------------|
B|---------------------------------------------------------------------|
G|-9999-9999-9999-9999-9999-9999-9999-9999-----------------------------|
D|-9999-9999-9999-9999-9999-9999-9999-9999-----------------------------|
A|-7777-7777-7777-7777-7777-7777-7777-7777-----------------------------|
e|---------------------------------------------------------------------|


OUTRO

E|--0000--0000----0000--0000----0000--0000----0000--0000---------------|
B|--4~~~--4~~~----11~~--11~~----4~~~--4~~~----11~~--11~~---------------|
G|---------------------------------------------------------------------|
D|---------------------------------------------------------------------|
A|---------------------------------------------------------------------|
e|---------------------------------------------------------------------|

E|--00000000-----------------------------------------------------------|
B|--4~~~~~~~-----------------------------------------------------------|
G|---------------------------------------------------------------------|
D|---------------------------------------------------------------------|
A|---------------------------------------------------------------------|
e|---------------------------------------------------------------------|
comments
print report bad tab
I want to post or [tab]
guest
You may want to rate the tab now too:
select rating
Please do not post tabs as comments. Select "correction" instead!