Oops, an error
Loading. Please wait.

Take My Life Bass Tab

913 views 1 this week
no commentswrite comment
1 2 3 4 5
please rate
add to favorites
launch autoscroll
font size
0
reset
guitar tuner
Tab Pro tools
  • play this tab
  • loop segment
  • change instrument
  • show fretboard
  • metronome
×
Best way to learn
"Take My Life"
Autoscroll
slow
fast
+/-
esc
set tempo
stop
Difficulty
intermediate
In his recordings the bass does not come in until later,
but I think you can start playing whenever you want.
I like to start right at the beginning but the effect is nice
when you add different instruments as the song progresses.

Take My Life---
G|------------|------------|------------|------------|
D|------------|-7-----9----|------------|-7---/12----|
A|------------|------------|-10-9--7----|------------|   X 2
E|-10---------|------------|------------|------------|
   1  2  3  4   1  2  3  4   1  2  3  4   1  2  3  4

G|------------|------------|------------|------------|
D|-10---------|-9--------\-|-2--------/-|-7---/12----|
A|------------|------------|------------|------------|
E|------------|------------|------------|------------|
   1  2  3  4   1  2  3  4   1  2  3  4   1  2  3  4

G|------------|------------|------------|------------|
D|------------|-7-----9----|------------|-7---/12----|
A|------------|------------|-10-9--7----|------------|
E|-10---------|------------|------------|------------|
   1  2  3  4   1  2  3  4   1  2  3  4   1  2  3  4


Here Am I---  start on the I
G|------------|------------|------------|------------|
D|------------|------------|------------|------------|
A|-7----------|-10---------|-12---------|------------|  X 2
E|------------|------------|------------|------------|
   1  2  3  4   1  2  3  4   1  2  3  4   1  2  3  4


Take My will---
G|------------|------------|------------|------------|
D|------------|-7-----9----|------------|-7---/12----|
A|------------|------------|-10-9--7----|------------|   X 2
E|-10---------|------------|------------|------------|
   1  2  3  4   1  2  3  4   1  2  3  4   1  2  3  4

G|------------|------------|------------|------------|
D|-10---------|-9--------\-|-2--------/-|-7---/12----|
A|------------|------------|------------|------------|
E|------------|------------|------------|------------|
   1  2  3  4   1  2  3  4   1  2  3  4   1  2  3  4




G|------------|------------|------------|------------|
D|------------|-7-----9----|------------|-7---/12----|
A|------------|------------|-10-9--7----|------------|
E|-10---------|------------|------------|------------|
   1  2  3  4   1  2  3  4   1  2  3  4   1  2  3  4



G|------------|------------|------------|------------|
D|------------|-7-----9----|------------|-7--\--0----|
A|------------|------------|-10-9--7----|------------|
E|-10---------|------------|------------|------------|
   1  2  3  4   1  2  3  4   1  2  3  4   1  2  3  4


HERE AM I--- start on I

G|-----------------|-----------------|-----------------|-----------------|
D|-----------------|-----------------|-----------------|-----------------|
A|-----------------|-----------------|-----------------|-----------------|
E|-0-0-0-0-0-0-2-2-|-3-3-3-3-3-3-3-//|/5-5-5-5-5-5-5-5-|-5-5-5-5-5-5-5-5-|
   1 - 2 - 3 - 4 -   1 - 2 - 3 - 4 -   1 - 2 - 3 - 4 -   1 - 2 - 3 - 4 –

Repeat until end.  On last time, hold each note on the 1.



| /  slide up
| \  slide down
| h  hammer-on
| p  pull-off
| ~  vibrato
| +  harmonic
| x  Mute note
comments
We did not receive enough feedback on this tab! Please rate:
print report bad tab
1 2 3 4 5
I want to post or [tab]
guest
You may want to rate the tab now too:
select rating
Please do not post tabs as comments. Select "correction" instead!