Oops, an error
Loading. Please wait.

Uncreated One Tab

12,557 views 9 this week
2 commentsread comments
1 2 3 4 5
excellent!
x 5
add to favorites
launch autoscroll
font size
0
reset
how to read this tab
guitar tuner
Autoscroll
slow
fast
+/-
esc
set tempo
stop
Help us to improve Ultimate-Guitar.com Take our survey!
×
Contributor
Capo
1st fret
Capo I

Intro

-----------0-------------------*0---------------2---0--------------0---------|
------3----------3--------3---------3-------3-----------------3----------3---|
----2-----2----2------0--0----0---0-------2---2---2------0--0----0-----0-----|
--0-----0----0----0---------------------0----0---0---0-----------------------|
-----------------------2----2----0-------------------------2----2----0-------|
-----------------------------------------------------------------------------|
*can precede with grace notes

Verse (variations marked with brackets)

  D  Em  D/F#       G   A   D           G        D/F#      Asus4     A
--2---3------------------------(0h)2-------------------0----------0--------|
--3---3---3----3----3---2---3-------3---3----3----3---------3--------2-----|
--2---0---2------0--0---2---2-2---------0--0------2--2---2--2----2---2---2-|
--0-------0--0------0---2---0------------------0------------2--2-----2-2---|
------------------------0-----------------------------------0--------0-----|
------0---2---------3-------------------3---------2------------------------|

         D    A/C# Bm            G          A       D
---(0h)2-----2--0--------0---------------0-(2)-(0)------3---(0h)2----(2h0)--|
(2h3)--3---3-------3--------3--2-0h2--3-----3---2---3------------(3)-3------|
-------2-2---------4----3---4--------------------------2--2---------2-------|
-------0--------------0-----------------------------0-----------------------|
----------------4--2--------0---------------0-------------------------------|
---------------------------------3------------------------------------------|

Chorus

  A               G                      A          G   D
------0-----------------3-------2------2p0---0---0---3---0--2-------(2h0)-|
--2------3---2-----0-------0---------3-------3--------------3----3--------|
----------------------------------2----------------------------2---2------|
----2--2---2----2-----0---------0---------------------------0-------------|
--0----------0-------------------------------0----------------------------|
-------------------3---------------------------------3--------------------|

  A                G  A  B            G     A     D  (instrumental)
------0---------------------2--0----------------------------0----------|
--2-------3---2----0--2--3--------3---0---3--3--2--3----3-------3------|
-------------------2--2--2----------------------------2---2---2---2----|
----2---2---2---2-----------------------0----------0-------------------|
--0-----------0-------0--2-------------------0-------------------------|
-------------------3------------------3--------------------------------|

  B       A             D                  B        A
----------0---------0-----------0-------------------0--------0----|
------3---------2h3---------3-------3-----------3--------2h3------|
----2---2----2------------2---2---2---2-------2---2---2-----------|
------------------------0-----------------------------------------|
--2-------0---------------------------------2-------0-------------|
------------------------------------------------------------------|

repeat verse, with variations

after second time chorus
strum D2 (xx0320)

This is my first tab and it's not perfect, but I hope you have as much fun playing it as 
had writing it!

God bless!
Suggest correction What's this?
You can suggest a correction to this tab. Community and Mods will review your correction and vote to approve or reject it.
comments
print report bad tab
2 comments total.
0 reply
Yostinator14 11 wrote on January 24 2009, 12:01 am

I think you did a fantastic job for your first tab! only thing I could find was that there might be a chord missing in the chorus...but thats it. Really fun song to play!

0 reply
Toycar 12 wrote on January 20 2010, 11:39 am

I think this is a great tab. God bless!

I want to post or [tab]
guest
You may want to rate the tab now too:
select rating
Please do not post tabs as comments. Select "correction" instead!