Oops, an error
Loading. Please wait.

Where The Spirit Of The Lord Is Tab

10,364 views 15 this week
no commentswrite comment
1 2 3 4 5
excellent!
x 4
add to favorites
launch autoscroll
font size
0
reset
how to read this tab
guitar tuner
Autoscroll
slow
fast
+/-
esc
set tempo
stop
Help us to improve Ultimate-Guitar.com Take our survey!
×
Author
Capo
clm12704 2,238
2nd fret
Chris Tomlin
Where the Spirit of the Lord is
From "Passion: Awakening"
Tabbed by thatchadmiller (Twitter)


132 BPM
Capo 2

Chorus
Asus
We know where the spirit of the Lord is 
           C#m                    Bsus
(where the spirit of the Lord is there is liberty)
Asus
We know living in your freedom
C#m                    Bsus
(Living in your freedom we see your glory)
Asus
We know where the spirit of the Lord is 
           C#m                    Bsus
(where the spirit of the Lord is there is liberty)
Asus
We're yours and yours is the kingdom
C#m                    Bsus
(We are yours) and yours is the kingdom


Verse 1
C#m                           F#m
You are the fire through the night
                              C#m
You are the flame that burns inside
                                 F#m
We need your presence more than anything
C#m                      F#m
You're more than just a song to sing
                        C#m
More than words or offerings
                                F#m
We need your presence more than anything


Pre-Chorus
Asus
You're all that we want
       C#           Bsus
You're all that we need
Asus
You're all that we want
       C#           Bsus
You're all that we need

Chorus

Verse 2
You call us closer to your heart
Lead us Lord to where you are
We need your presence more than anything

Pre-Chorus
Chorus
Musical interlude

Bridge
        F#m 
You're all that we want
       G#m
You're all that we need
        A
You're all that we want
       C#m         B
You're all that we need

Chorus (Acapella first half, build up second half)

Outro:
Asus
We know where the spirit of the Lord is 
           C#m                    Bsus
(where the spirit of the Lord is there is liberty)



Chords (relative to capo)
   Asus    C#m    Bsus   F#m   G#m
e|--0-------0------0------0-----0----------------------|
B|--0-------0------0------0-----0----------------------|
G|--2-------6------4------2-----4----------------------|
D|--2-------6------4------4-----6----------------------|
A|--0-------4------2------4-----6----------------------|
E|------------------------2-----4----------------------|

Instrumental part between chorus/verse
(tab relative to capo)

e|--0---0--0--0--0---0-0-0-0-------------------------------------------|
B|--0---10-10-10-9---5-5-5-4(b)----------------------------------------|
G|--2------------------------------------------------------------------|
D|--2------------------------------------------------------------------|
A|--0------------------------------------------------------------------|
E|---------------------------------------------------------------------|

During the solo part, hammer/release the B string on the second fret to 
get that right.

*Remember* Tabs are relative to the capo, so if it says "10" that's actually
on the 12th fret.

If you have any input or corrections, check out my blog for more info and 
let me know if you have any songs you need help with. God bless!
Suggest correction
What's this?
You can suggest a correction to this tab. Community and Mods will review your correction and vote to approve or reject it.
comments
print report bad tab
guest
You may want to rate the tab now too:
select rating
Please do not post tabs as comments. Select "correction" instead!